Guitaretab - guitar tabs
Song name
# A B C D E F G H I J K L M N O P Q R S T U V W X Y Z

Misc Unsigned Bands - The Underacheivers - Not Sure tab

Guitar:1 (0:00)
E|---------------------------------------------------------------------|
B|---------------------------------------------------------------------|
G|---------------------------------------------------------------------|
D|004--5-5-5--------004----------004--7-7-7--------004--2-2-2----------|
A|---5-----------------5------------5-----------------5----------------|
E|-----------------------5-5-5-----------------------------------------|

Guitar:2 (0:00)
E|---------------------------------------------------------------------|
B|---------------------------------------------------------------------|
G|--55555-55-5-5----------------77777-77-7-7--55555-55-5-5-------------|
D|--55555-55-5-5--55555-55-5-5--77777-77-7-7--66666-66-6-6-------------|
A|--77777-77-7-7--55555-55-5-5--99999-99-9-9--77777-77-7-7-------------|
E|----------------77777-77-7-7-----------------------------------------|
[ Tab from: http://www.guitaretab.com/m/misc-unsigned-bands/73509.html ]
Related for The Underacheivers - Not Sure tab
Advertisement will be closed in 10 seconds