Song name
# A B C D E F G H I J K L M N O P Q R S T U V W X Y Z

Misc Unsigned Bands - Waking The Cadaver - Chased Through The tab

Help us improve GuitareTab! Take a short survey!
Artist - Waking the Cadaver
Song - Chased Through the...
Album - Demo 2006
Self Released
www.myspace.com/wakingthecadaver


Palm Mute - .
Pinch Harmonic - *


---------------------------------------------|
---------------------------------------------|
---------------------------------------------|
-0-0-0--0-0-0--------------------------------|
-0-0-0--0-0-0--------------------------------|
-0-0-0--0-0-0--------------------------------|
 . . .  . . .

---------------------------------------------|
---------------------------------------------|
---------------------------------------------|
---------------------------------------------|
-----------5-4-4-4-4-4-4-4-------------------|
-0-0-0-0-7-----------------------------------|

---------------------------------------------|
---------------------------------------------|
---------------------------------------------|
-0--0-0-0-0-1-0--0-0-0-0-1-------------------|
-0--0-0-0-0-1-0--0-0-0-0-1-------------------|
-0--0-0-0-0-1-0--0-0-0-0-1-------------------|
 .  . . . . . .  . . . . .

----------------------------------------------|
----------------------------------------------|
----------------------------------------------|
-0--0-0-0-0-0--0-0-0-0-0-0-0------------------|
-0--0-0-0-0-0--0-0-0-0-0-0-0------------------|
-0--0-0-0-0-0--0-0-0-0-0-0-0------------------|
 .  . . . . .  . . . . . . .

----------------------------------------------|
----------------------------------------------|
----------------------------------------------|
----------------------------------------------|
---------3-3-2-2--x4---------3-3-2-2--x4------|
-3-3-3-3-------------3-3-2-2------------------|

----------------------------------------------|
----------------------------------------------|
----------------------------------------------|
-0-2-3-----0-2-3-2-0-1------------------------|
-0-2-3-----0-2-3-2-0-1------------------------|
-0-2-3-4*--0-2-3-2-0-1-2*---------------------|
 . . .     . . . . . .

----------------------------------------------|
----------------------------------------------|
----------------------------------------------|
-0-2-3-----0-2-3----0-1-2---------------------|
-0-2-3-----0-2-3----0-1-2---------------------|
-0-2-3-4*--0-2-3-2*-0-1-2-2*------------------|
 . . .     . . .    . . .


Thats it. Relatively Easy, but a very good Death
Metal Band, just Recently formed. www.myspace.com/wakingthecadaver
Related for Waking The Cadaver - Chased Through The tab