Song name
# A B C D E F G H I J K L M N O P Q R S T U V W X Y Z

Misc Unsigned Bands - Get Back Loretta - 95 tab

link:
http://www.purevolume.com/getbackloretta

www.ultimate-guitar.com

------------------------------------------------------------------------------
	                      Ninety Five - Get Back Loretta
------------------------------------------------------------------------------

| /  slide up
| \  slide down
| h  hammer-on
| p  pull-off
| x  Mute note
| ( ) Ghost Note
| D  Downstroke
| U  Upstroke

Intro: Piano arranged for Guitar

e|-----7----7---10----12-(10)-10--7-5-3-2------------------|
B|-8----------8--------------------------------------------|
G|---9-----------------------------------------------------|
D|-----9----5----9----10-(10)-----9-7-5-4------------------|
A|-7-------------------------------------------------------|
E|---------------------------------------------------------|

changed up a little for verse: other variations also

e|------------------------10------7-5-3-2------------------|
B|-8--------8----------------------------------------------|
G|---9---9----7---7-----9----------------------------------|
D|-----9--------9-----10-----10---9-7-5-4------------------|
A|-7--------7----------------------------------------------|
E|---------------------------------------------------------|

Guitar comes in:
    D U
e|---------------------------------------------------------|
B|--4-4-----------8/---------------------------------------|
G|--4-4---x-x---x-9/--x-x--x-4-x-x--x-9--x-x--x-8/---------|
D|--4-4---x-x-----9/--x-x----5-x-x----10-x------9/---------|
A|--2-2-----------7/---------5--------10--------9/---------|
E|---------------------------3---------8--------7/---------|

variations like this are played for the verse:

e|---------------------------------------------------------------|
B|--8-8---8-8--12-12---12-12-------------------------------------|
G|--9-9-x-9-9--12-12-x-12-12---9--9-x-9--9-----8-8-8-8-8---------|
D|--9-9-x-9-9--12-12-x-12-12--10-10-x-10-10----9-9-9-9-9---------|
A|--7-7---7-7--10-10---10-10--10-10---10-10----9-9-9-9-9---------|
E|-----------------------------8--8----8--8----7-7-7-7-7---------|

Chorus: 

Guitar 1
           C                      G              Fmajor
e|---------------------------------------------------------------|
B|---------------------------------------------------------------|
G|-9--9--9--9--9--9--9--9--4-4-4-4-4-4-4-4-3-3-3-3-3-3-3-3-------|
D|-10-10-10-10-10-10-10-10-5-5-5-5-5-5-5-5-4-4-4-4-4-4-4-4-------|
A|-10-10-10-10-10-10-10-10-5-5-5-5-5-5-5-5-4-4-4-4-4-4-4-4-------|
E|-8--8--8--8--8--8--8--8--3-3-3-3-3-3-3-3-2-2-2-2-2-2-2-2-------|

Guitar 2/piano

e|-12-12-12-12-12-12-12-12-7-7-7-7-7-7-7-7-6-6-6-6-6-6-6-6-------|
B|---------------------------------------------------------------|
G|---------------------------------------------------------------|
D|-10-10-10-10-10-10-10-10-5-5-5-5-5-5-5-5-4-4-4-4-4-4-4-4-------|
A|---------------------------------------------------------------|
E|---------------------------------------------------------------|


Tabbed by Paul Ardizzone
Emitremus3@hotmail.com










Tap to rate this tab
 
# A B C D E F G H I J K L M N O P Q R S T U V W X Y Z