Guitaretab - guitar tabs
Song name
# A B C D E F G H I J K L M N O P Q R S T U V W X Y Z

Misc Unsigned Bands - Mentally Nsane - Crazy Monkey tab

use pick it works better trust me!

Intro:
e--------------------------| x4
b--------------------------|
g--------------------------|
d--------------------------|
a--------------------------|
E-0-0-0-5-5-5-3-3-3-7-7-7--|


e--------------------------------------------------------------------| x2
b--------------------------------------------------------------------|
g--------------------------------------------------------------------|
d--------------------------------------------------------------------|
a-5-5-5-5-5-3-3-3-3-3-7-7-7-7-7-5-5-5-5-5-5-5-5-5-5-5-5-5-5-5-5-5-5--|
E-5-5-5-5-5-3-3-3-3-3-7-7-7-7-7-5-5-5-5-5-5-5-5-5-5-5-5-5-5-5-5-5-5--|


e---------------------------------------------| x2
b---------------------------------------------|
g---------------------------------------------|
d---------------------------------------------|
a---------------------------------------------|
E-3--3--3-3--7--7--7-7--5--5--5-5--5--5--5-5--|

wait 8 seconds
e--------------------------------------------------------------------| x2
b--------------------------------------------------------------------|
g--------------------------------------------------------------------|
d--------------------------------------------------------------------|
a-5-5-5-5-5-3-3-3-3-3-7-7-7-7-7-5-5-5-5-5-5-5-5-5-5-5-5-5-5-5-5-5-5--|
E-5-5-5-5-5-3-3-3-3-3-7-7-7-7-7-5-5-5-5-5-5-5-5-5-5-5-5-5-5-5-5-5-5--|

[ Tab from: http://www.guitaretab.com/m/misc-unsigned-bands/73706.html ]
e---------------------------------------------------------|
b---------------------------------------------------------|
g---------------------------------------------------------|
d---------------------------------------------------------|
a-------3-3-------7-7---------------------------------5-5-|
E-3-3-3-3-3-7-7-7-7-7-5-5-5-5-5-5-5-5-5-5-5-5-5-5-5-5-5-5-|


e---------------------------------------------| x2
b---------------------------------------------|
g---------------------------------------------|
d---------------------------------------------|
a---------------------------------------------|
E-3--3--3-3--7--7--7-7--5--5--5-5--5--5--5-5--|


e---------------------------------------------------------------------|
b---------------------------------------------------------------------|
g---------------------------------------------------------------------|
d---------------------------------------------------------------------|
a-3-3-3-3-3-3-3-3-7-7-7-7-7-7-7-7-5-5-5-5-5-5-5-5-5-5-5-5-5-5-5-5-5-5-|
E-3-3-3-3-3-3-3-3-7-7-7-7-7-7-7-7-5-5-5-5-5-5-5-5-5-5-5-5-5-5-5-5-5-5-|

let last note ring out do not stop it let it ring OUT!
e---------------------------------------------------------------------|
b---------------------------------------------------------------------|
g---------------------------------------------------------------------|
d---------------------------------------------------------------------|
a-7-7-7-7-7-7-7-7-3-3-3-3-3-3-3-3-5-5-5-5-5-5-5-5-5-5-5-5-5-5-5-5-5---|
E-7-7-7-7-7-7-7-7-3-3-3-3-3-3-3-3-5-5-5-5-5-5-5-5-5-5-5-5-5-5-5-5-5-5-|
Related for Mentally Nsane - Crazy Monkey tab
×
Mentally Nsane - Crazy Monkey