Song name
# A B C D E F G H I J K L M N O P Q R S T U V W X Y Z

Misc Unsigned Bands - Shortline Hero - Rock And Repeat tab

 0:00
------------------------------------------------------------|
------------------------------------------------------------|
-----7----10----9----5----5------3----3------5----5---------|
--00---00----00---00---00---0-55---55---5-77---77---7-------|
------------------------------------------------------------|
------------------------------------------------------(x3)--|

 0:14
--------------------------------------------------------|
--------------------------------------------------------|
-----7----10----9----5----5------2----2------0----0-----|
--00---00----00---00---00---0-33---33---3-22---22---2---|
--------------------------------------------------------|
--------------------------------------------------------|

 0:18
----------------------------------------------------------|
----------------------------------------------------------|
-----7----10----9----5----5------3----3------5----5-------|
--00---00----00---00---00---0-55---55---5-77---77---7-----|
----------------------------------------------------------|
----------------------------------------------------------|

 0:23
-------------------------------------------|
-------------------------------------------|
-----7----10----9----5----5---10---9---7---|
--00---00----00---00---00------8---7---5---|
-------------------------------8---7---5---|
-------------------------------------------|

 0:28
(--------------------------------------------------------)
(--------------------------------------------------------)
(--------------------------------------------------------)
(--------------------------------------------------------)
(--5----8--3-----5----8--3-----5----8--3-----5----8--3---)
(--------------------------------------------------------)

 0:33
----------------------------------------------------|
----------------------------synthesizer-------------|
-------------------------------v--------------------|
--00---0000-----00--00--00--00---00--00--00--00-----|
--00---0000-----00--00--00--00---00--00--00--00-----|
--00---0000-----00--00--00--00---00--00--00--00-----|


 1:00
----------------------------------------------------------------------|
-------15^--------15^------15^---15^-15----15^---15^-15----15^--------|
-------18^--------18^------18^---18^-18----18^---18^-18----18^--------|
--0000------0-0-0-------00-----0--------00-----0--------00------------|
--0000------0-0-0-------00-----0--------00-----0--------00------------|
--0000------0-0-0-------00-----0--------00-----0--------00------(x4)--|

 1:21            1:30
---------------|------------------------------------------|
----------15^--|---------------------------15^-15^--------|
----------18^--|---------------------------18^-18^--------|
--00000--------|--0-0-00000----0-0-00000------------------|
--00000--------|--0-0-00000----0-0-00000------------------|
--00000--------|--0-0-00000----0-0-00000------------(x3)--|

1:59
-----------------------------------------------|
--6-10-8--8-11-10--10/-6-5--6-5----------------|
--------------------------------7-5------------|
------------------------------------8-7-5------|
------------------------------------------8-7--|
-----------------------------------------------|

-----------------------------------------------|
--6-10-8--8-11-10--10/-6-5--6-5----------------|
--------------------------------7-5------------|
------------------------------------8-7-5------|
------------------------------------------8-7--|
-----------------------------------------------|

------------------------------------------------------------|
--6-10-8--8-11-10--10/-13-11--6-5---------------------------|
----------------------------------7-5-----------------------|
--------------------------------------8-7-5-----------------|
--------------------------------------------8-7-------------|
------------------------------------------------------------|

----------------------------------------------------------|
--6-10-8--8-11-10--10/-6-5--6-5---------------------------|
--------------------------------7-5-----------------------|
------------------------------------8-7-5-----------------|
------------------------------------------8-7----8---10---|
----------------------------------------------------------|

 2:26
-----------------------------|
-----------------------------|
--5-55-5---------------------|
--3-33-3-00-3-2-00-5-2-------|
--3-33-3-00-----00-----------|
---------00-----00-----(x8)--|

 2:49
-----------------------------------------------------------|
-----------------------------------------------------------|
-----------------------------------------------------------|
--0-0-0--0-0-0-0-0--0-0-0--0-0-0--0000-0-0-0--0-0-0--------|
--0-0-0--0-0-0-0-0--0-0-0--0-0-0--0000-0-0-0--0-0-0--------|
--0-0-0--0-0-0-0-0--0-0-0--0-0-0--0000-0-0-0--0-0-0--(x7)--|

 3:23
-----------------------------------------------------|
-----------------8-----------------------------------|
--7-7-10-7-9-7-7---7-7-10-7-9h10p9-7-9---9-9-9-9-9---|
-----------------------------------------------------|
-----------------------------------------------------|
-----------------------------------------------------|
Tap to rate this tab
 
# A B C D E F G H I J K L M N O P Q R S T U V W X Y Z