Song name
# A B C D E F G H I J K L M N O P Q R S T U V W X Y Z

Misc Unsigned Bands - Silbermond - Endlich tab

[Intro]

Dm             C          G

-----0h1----- ---------- --------- -------5-3---------------|
---------3--- -----3---- --------- ------------0-5---5-s3-3-|
---2-------2- --------0- -----0--- ----------------0--------|
-0----------- ---2------ ----0---- -----7-------------------|
------------- -3-------- -------2- -3s5---------------------|
------------- ---------- -3------- -----------------------3-|


-----1------- -----3----- ----------- -------5-1-----3------------- -------|
-------3----- -------3--- -----3----- -----------------3-----3----- -------|
---2-----2--- ---0-----0- -------0--- -------------0-------0---0--- -------|
-0----------- ----------- ---0-----0- -----7---------------------0- -----0-|
------------- -3--------- ----------- -3s5-------3----------------- -0h2---|
------------- ----------- -3--------- -------------------3--------- -------|

wir tragen...                        sei unbesorgt...

-----5-1-- -----3---- ------------------ -----0h1--- --- -------
---------- -------3-- -0-------0h1-1h3-- ---------3- --- ----0--
---2------ ---------- ------------------ ---2------- --- ----0--
-0-------- ---2------ -----0------------ -0--------- --- -------
---------- -3-------- -------0---------- ----------- -3- -------
---------- ---------- -3---------------- ----------- --- ---3---
... angst              stunde...                     vergänglich ist.


-----1------- -----3----- ------------------ -----0h1----- ---------- -----
-------3----- -------3--- -----0----0h1-1h3- ---------3--- -----3---- -----
---2-----2--- ---0-----0- -------0---------- ---2-------2- --------0- -----
-0----------- ----------- ---0-------------- -0----------- ---2------ -0---
------------- -3--------- ------------------ ------------- -3-------- -----
------------- ----------- -3---------------- ------------- ---------- ---3-
... egal ob ...           umbringt..                     ... zuende sein


-----0h1----- ----------- ----------- -----0h1----- ------------------ ------------
---------3--- -----3----- -----3-1-0- ---------3--- -----3----3------- -3---3------
---2-------2- -------0--- ----------- ---2--------- --------0-------0- ---0--------
-0----------- ---2-----2- ---0------- -0----------- ---2-----2-------- ----0-------
------------- -3--------- ----------- ------------- -3------------2--- ------------
------------- ----------- -3--------- ------------- ------------------ -------3----
..die Einsicht...           machtlos...              ...frier es ein...


the rest of the song goes on like that, just the rytm changes. Some parts consist of Dm,
and G in strummed fashion. You can use the variations of the intro part to improvise.
fun ;)


[outro]

 Dm (557765)  C(335553)
für immer
    Dm (x00231)  C(032010)
für immer
ist es nicht
C(88AA98)      Dm(557765)  C(335553)
nichts ist für immer
    Dm (x00231)  C(032010)
für immer

G(355433) - Am(577555) - Dm(557765) - C(335553) - G(320033)


-----0h1----- ----------- -----------|
---------3--- -----3----- -----3-1-0-|
---2-------2- -------0--- -----------|
-0----------- ---2-----2- ---0-------|
------------- -3--------- -----------|
------------- ----------- -3---------|

leb jeden tag als wärs das letzte was du tust

-------------------------------------------------------

just find out which chords you like best. Enjoy ^^
Tap to rate this tab
 
# A B C D E F G H I J K L M N O P Q R S T U V W X Y Z