Guitaretab - guitar tabs
Song name
# A B C D E F G H I J K L M N O P Q R S T U V W X Y Z

Misc Unsigned Bands - Mums Dollar - A Biography tab

http://mumsdollar.emptyvenuemusic.com/index.htm

hey umm well this is an awsome song by a new zealand band called mums dollar and i hav
to tab it but i culdnt figure out the whole song so this is all if you hav any problems
me on james_true_8@hotmail.com l8rz

h=hammer on

INTRO
e|---------------------------|
B|-7--------6------4---------|
G|-9--------8------6---------|
D|-9--------8------6---------|
A|---------------------------|
E|---------------------------|

e|-----------------------12----------|
B|------9-10-9------9-10----9-10-9---|
G|9-11---------9-11------------------|
D|-----------------------------------|x 4
A|-----------------------------------|
E|-----------------------------------|
[ Tab from: http://www.guitaretab.com/m/misc-unsigned-bands/73825.html ]
VERSE
e|-----------------------------------|
B|-----9-------9-------9-------9-----| x2
G|9-11----9-11----9-11----9-11-------|
D|-----------------------------------|
A|-----------------------------------|
E|-----------------------------------|

e|-----------------------------------|
B|-----12-------12------12--------12-|      x2
G|9-11-----9-11----9-11------9-11----|
D|-----------------------------------|
A|-----------------------------------|
E|-----------------------------------|

PRE-CHORUS
e|-----------------------------------|
B|-----------------------------------|
G|-8h9x4--9h11x4--8h9x4--9h11x4------|
D|-----------------------------------|
A|-----------------------------------|
E|-----------------------------------|

CHORUS
E|----------------------------|
B|----------------------------|
G|------4---------------------|
D|-2----4----7----2----4------|
A|-2----2x8-7----2----4------|
E|-0x8-------5x8--0x4--2x4----|
Related for Mums Dollar - A Biography tab