Song name
# A B C D E F G H I J K L M N O P Q R S T U V W X Y Z

Misc Unsigned Bands - Optikull Illusion - Want Some Candy tab

seprate guitar plays chorus througout the song. after the first five times the other 
starts playing the versus until its over, then lets the seperate guitarst do a solo on the chorus

chorus
e  -----------------------------------------------------------------------|
b  -----------------------------------------------------------------------|
g  ------------9-11-------------------------------------------------------|
d  -10-9-9---9-11---------------------------------------------------------
a  -10-9-9---7--9---------------------------------------------------------|
e  --8-7-7----------------------------------------------------------------|

verse
e  -----------------------------------------------------------|
b  -----------------------------------------------------------|
g  ------------------7-7-7-7-7--------------------------------|
d  --9-9-9-9-5-5-5-5-7-7-7-7-7-7-7-7-7------------------------|
a  --9-9-9-9-5-5-5-5-5-5-5-5-7-7-7-7-7------------------------|
e  --7-7-7-7-3-3-3-3-----------5-5-5-5------------------------|

e  -----------------------------------------------------------|
b  -----------------------------------------------------------|
g  ------------------7-7-7-7----------------------------------|
d  --9-9-9-9-5-5-5-5-7-7-7-7-5-5------------------------------|
a  --9-9-9-9-5-5-5-5-5-5-5-5-5-5------------------------------|
e  --7-7-7-7-3-3-3-3---------7-7------------------------------|

chorus

verse x2
Tap to rate this tab
# A B C D E F G H I J K L M N O P Q R S T U V W X Y Z