Song name
# A B C D E F G H I J K L M N O P Q R S T U V W X Y Z

Misc Unsigned Bands - Aggressive Audio - Lingin tab

Aggressive Audio - Lingin  

-----------------------------------------------------------------------------
     LINGIN - Aggressive Audio
-----------------------------------------------------------------------------


Tabbed by:Jeric Allen Cayon
Rearrange by:Louie Matthew Lee
Email: louielee90@yahoo.com  
Email: sticker_hapi91@yahoo.com
Most of the song, acoustic guitar was used.

Intro:
e|-----0----7-5-4-----|-----0-------4-5-7--|-----2---9-7-5--|-----2-----3-2--|
B|---2---2------------|---0---0------------|---2---2--------|---3---3--------|
G|-2------------------|-1------------------|-2--------------|-2--------------|
D|--------------------|--------------------|----------------|----------------|
A|--------------------|--------------------|----------------|----------------|
E|--------------------|--------------------|----------------|----------------|

repeat this 2x

Verse 1:
e|-----0----7-5-4-----|-----0-------4-5-7--|-----2---9-7-5--|-----2-----3-2--|
B|---2---2------------|---0---0------------|---2---2--------|---3---3--------|
G|-2------------------|-1------------------|-2--------------|-2--------------|
D|--------------------|--------------------|----------------|----------------|
A|--------------------|--------------------|----------------|----------------|
E|--------------------|--------------------|----------------|----------------|

repeat 2x

Refrain:
e|-----0----7-5-4-----|-----0-------4-5-7--|-----2---9-7-5--|-----2-----3-2--|
B|---2---2------------|---0---0------------|---2---2--------|---3---3--------|
G|-2------------------|-1------------------|-2--------------|-2--------------|
D|--------------------|--------------------|----------------|----------------|
A|--------------------|--------------------|----------------|----------------|
E|--------------------|--------------------|----------------|----------------|

repeat once

Verse 2:
e|-----0----7-5-4-----|-----0-------4-5-7--|-----2---9-7-5--|-----2-----3-2--|
B|---2---2------------|---0---0------------|---2---2--------|---3---3--------|
G|-2------------------|-1------------------|-2--------------|-2--------------|
D|--------------------|--------------------|----------------|----------------|
A|--------------------|--------------------|----------------|----------------|
E|--------------------|--------------------|----------------|----------------|

repeat 2x

Refrain:
(strum this part)
          A                    E                  F#m              D
e|--------5-----------|--------7-----------|------2--------|-------5--------|
B|--------5-----------|--------9-----------|------2--------|-------7--------|
G|--------6-----------|--------9-----------|------2--------|-------7--------|
D|--------7-----------|--------9-----------|------4--------|-------7--------|
A|--------7-----------|--------7-----------|------4--------|-------5--------|
E|--------5-----------|--------------------|------2--------|----------------|

Chorus:
(Strum gihapon this part)
          A                    E                  F#m              D
e|--------5-----------|--------7-----------|------2--------|-------5--------|
B|--------5-----------|--------9-----------|------2--------|-------7--------|
G|--------6-----------|--------9-----------|------2--------|-------7--------|
D|--------7-----------|--------9-----------|------4--------|-------7--------|
A|--------7-----------|--------7-----------|------4--------|-------5--------|
E|--------5-----------|--------------------|------2--------|----------------|

Instrumental:
A-E-F#m-D picking

Chorus:
(This is where the drums and electric guitar come in)
          A                    E                  F#m              D
e|--------5-----------|--------7-----------|------2--------|-------5--------|
B|--------5-----------|--------9-----------|------2--------|-------7--------|
G|--------6-----------|--------9-----------|------2--------|-------7--------|
D|--------7-----------|--------9-----------|------4--------|-------7--------|
A|--------7-----------|--------7-----------|------4--------|-------5--------|
E|--------5-----------|--------------------|------2--------|----------------|

Outro:
(picking)

D           E         A
kay akong kinabuhi lingin
D                  E         A-E-F#m-D
kitang tanan sa kalibutan lignin


------------------------------

100% sakto ni...... basta...support local music...



Aggressive Audio MySpace: http://www.myspace.com/aggressiveaudio/
Tap to rate this tab
# A B C D E F G H I J K L M N O P Q R S T U V W X Y Z