Song name
# A B C D E F G H I J K L M N O P Q R S T U V W X Y Z

Misc Unsigned Bands - Random Thoughts - Bruising Skin And Breaking Hearts tab

standard tuning pretty simple guitar part

Intro:
repeat each of these picking parts 4 times

(its not right its so wrong how...)

e-------------------------------------------|
b-------------------------------------------|
g---7---------7--------7---------7----------|
d--7-7-(X4)--5-5-(X4)-5-5-(X4)--7-7-(X4)----|
a-5---------5------------------5------------|
E--------------------7----------------------|

repeat this whole progression 2X


Bridge: Repeat each picking part 4 times also

(and while I don't believe...)

e-------------------------------------------|
b-------------------------------------------|
g---7---------6-----------------------------|
d--0-0-(X4)--0-0-(X4)-----------------------|
a-------------------------------------------|
E-7---------5-------------------------------|

repeat this progression 4X

Chorus: repeat each picking part 4 times

(there's no excuse for a loser...)

e-------------------------------------------|
b-------------------------------------------|
g---7--------6--------7---------6-----------|
d--4-4-(X4)-4-4-(X4)-0-0-(X4)--4-4----------|
a-5--------0------------------0-------------|
E-------------------7-----------------------|

repeat this whole progression 2X

Outro For Chorus:

Repeat each picking part 2 times

(well I guess that thought was...)

e--------------------------------------------|
b--------------------------------------------|
g---4---------6------------------------------|
d--0-0-(X2)--0-0-(X2)------------------------|
a--------------------------------------------|
E-3---------5--------------------------------|


REPEAT EVERYTHING ONE MORE TIME TO COMPLETE SONG
Tap to rate this tab
 
# A B C D E F G H I J K L M N O P Q R S T U V W X Y Z