Song name
# A B C D E F G H I J K L M N O P Q R S T U V W X Y Z

Misc Unsigned Bands - Three Fourths J - China Fever tab

Help us improve GuitareTab! Take a short survey!
-------------------------------------------------------------------------------
			     China Fever - Three Fourths J
-------------------------------------------------------------------------------
Tabbed by:Mark

Tuning: Standard

Intro
e|---------------------------------------------------------------------------|
B|---------------------------------------------------------------------------|
G|999-7-7-4-4-7--------------------------------------------------------------|
D|999-7-7-4-4-7--------------------------------------------------------------| x2
A|777-5-5-2-2-5--------------------------------------------------------------|
E|---------------------------------------------------------------------------|

Verse - All palm muted.
e|---------------------------------------------------------------------------|
B|---------------------------------------------------------------------------|
G|999999994444444477777777---------------------------------------------------|
D|99999999444444447777777777777777-------------------------------------------| x2
A|77777777222222225555555577777777-------------------------------------------|
E|------------------------55555555-------------------------------------------|

Chorus
e|---------------------------------------------------------------------------|
B|---------------------------------------------------------------------------|
G|4/7---4/7---4/7---4/7------------------------------------------------------|
D|4/7---4/7---4/7---4/7------------------------------------------------------|
A|2/5---2/5---2/5---2/5------------------------------------------------------|
E|---------------------------------------------------------------------------|


Verse


Chorus


Interlude - This isn't right, but its somewhat close, and noone will notice.
e|---------------------------------------------------------------------------|
B|---------------------------------------------------------------------------|
G|99999-7-6-5555--5-6-7/9----------------------------------------------------|
D|99999-7-6-5555--5-6-7/9----------------------------------------------------| x4 or 5
A|77777-5-4-3333--3-4-5/7----------------------------------------------------|
E|---------------------------------------------------------------------------|
   ...       ...


Chorus x2


Verse


Chorus x2


End on
e|---------------------------------------------------------------------------|
B|---------------------------------------------------------------------------|
G|4--------------------------------------------------------------------------|
D|4--------------------------------------------------------------------------|
A|2--------------------------------------------------------------------------|
E|---------------------------------------------------------------------------|

| .  Palm muted
| /  slide up
| \  slide down
| h  hammer-on
| p  pull-off
| ~  vibrato
| +  harmonic
| x  Mute note
===============================================================================
Related for Three Fourths J - China Fever tab