Song name
# A B C D E F G H I J K L M N O P Q R S T U V W X Y Z

Misc Unsigned Bands - Time Flies Sfter October - Sugar Cookie tab

Great band coming out of New Jersey. Unsigned, yet very professional and musically
This song doesn't showcase that as much as others, but it's the only tab they would give me
though I go to all their shows and I'nm probably their biggest fan.

Guitars 1&2:

Intro and Verses
e|--------------------------------------------------------------------------|
B|--------------------------------------------------------------------------|
G|----------777-------------------------------------------------------------|
D|4--44444--777--999--2--22222---777-666h7----------------------------------|
A|4--44444--555--999--2--22222---777-666h7----------------------------------|
D|4--44444-------777--2--22222---777-666h7----------------------------------|
     *****               *****
  ^let ring           ^ let ring

Chorus
e|--------------------------------------------------------------------------|
B|--------------------------------------------------------------------------|
G|------------------7777777777777777----------------------------------------|
D|4444444444444444--7777777777777777--9999999999999999----------------------|
A|4444444444444444--5555555555555555--9999999999999999----------------------|
D|4444444444444444--------------------7777777777777777----------------------|
   ******* *******   ******* *******   ******* *******

Bridge
e|------------------------------------------------------------|-------------|
B|------------------------------------------------------------|-------------|
G|------9---------4-------------------------------------------|-------------|
D|4--7--9--9--22--4-4----33333333--4-----------2323232323-----|--4----------|
A|4--7--7--9--22--4-4----33333333--4-----------2323232323-----|--4----------|
D|4--5-----7--22----4--------------4-44444444-----------------|--4----------|

                                                               ^ last time
                                                              play this and
                                                              let ring
*- palm mute

Song Structure:
Intro x2
Verse x3
Chorus x2
Verse x2
Chorus x2
Bridge x3
Chorus x2
Tap to rate this tab
# A B C D E F G H I J K L M N O P Q R S T U V W X Y Z