Song name
# A B C D E F G H I J K L M N O P Q R S T U V W X Y Z

Misc Unsigned Bands - The Sectioned - 18 tab

The Sectioned - 18

Hey guys, This is my first tab, im not sure about the timings so your just gona have
to listen to it yourself. Im prety sure this tab is write, Im in The Sectioned so im fairly confedent,
how ever not to sure about the octave lead bits in the bridge, but its good enough,
Any questions or corrections (cuz there probly are a few cuz im rubbiish at tabbing)
contact me on pickmaster@hotmail.co.uk (add me if you so wish) Much love, Jak x x x
This song is avliball @ www.myspace.com/thesectioned
                                 www.thesectioned.moonfruit.com
                                 www.purevolume.com/thesectioned


Intro

Gtr1
e------------------------------|
B------------------------------|
G----2~~~~~--------------------|
D----2~~~~~--------------------|
A----0~~~~~--------------------|
E------------------------------|

Gtr 1
e----------------------------------------------------------------------------------|
B----------------------------------------------------------------------------------|
G---222--222--222--222--555--555---------------------------------------------------|
D---222--222--222--222--555--555--555--555-----------------------          X 2-----|
A---000--000--000--000--333--333--555--555-----------------------------------------|
E----------------------------------------------333--333----------------------------|
     xx    xx    xx   xx    xx    xx   xx    xx

Gtr 2 play second time
e-------------------------------------------------------------------------------|
B-------------------------------------------------------------------------------|
G---222--222--222--222--555--555-1010-10-1010-10-9------------------------------|
D---222--222--222--222--555--555-x---x--x---x--x--x---x-------------------------|
A---000--000--000--000--333--333-8---8--8---8--8--8---7-------------------------|
E-------------------------------------------------------------------------------|
     xx    xx    xx   xx    xx    xx

Main Riff

Both Gtrs
e-------------------------------------------------------------|
B-------------------------------------------------------------|
G---2-2-2222-22222--5-5-555-----------------------------------|
D---2-2-2222-22222--5-5-555-5 55555---------       X 4--------|
A---0-0-0000-00000--3-3-333-5-55555---------------------------|
E---------------------------------------3-33333---------------|

After main riff has been played twice play lead bit below
Played By Gtr 2 first time and Gtr1 second time
e-------------------------------------------------------------------------------------------|
B-------------------------------------------------------------------------------------------|
G-------------------------------------------------------------------------------------------|
D-------------------------------------------------------------------------------------------|
A--------------------------88-77-53-33-353------------------------88-77-5x-10-101010101010--|
E---55-5555-55-555--------------------------55-5555-55-555----------------------------------|


Verse pt1

Gtr 1
e----------------------------------------------------------------------------------|
B----------------------------------------------------------------------------------|
G---222--222--222--222--555--555---------------------------------------------------|
D---222--222--222--222--555--555--555--555-----------------------          X 2-----|
A---000--000--000--000--333--333--555--555-----------------------------------------|
E----------------------------------------------333--333----------------------------|
     xx    xx    xx   xx    xx    xx   xx    xx


Verse pt2
Both Gtrs
e-------------------------------------------------------------|
B-------------------------------------------------------------|
G---2-2-2222-22222--5-5-555-----------------------------------|
D---2-2-2222-22222--5-5-555-5 55555---------       X 2--------|
A---0-0-0000-00000--3-3-333-5-55555---------------------------|
E---------------------------------------3-33333---------------|


Chours
Both Gtrs
e-----------------------------------------------------------------------------------|
B-----------------------------------------------------------------------------------|
G---22--55----------------------------22--55----------------------------------------|
D---22--55--55------------2h3p2--22--55--55-------------2h3p2-----------------------|
A---00--33--55-------3h5-----------00--33--55-------3h5-----------------------------|
E--------------33--3h5---------------------------33--3h5----------------------------|

Bridge pt1
Gtr1
e--------------------------------------------------------------------|
B--------------------------------------------------------------------|
G---22-222-22-222-2-22-222-22-222-2-22-222-22-222-2-22-222-22-222-2--|
D---22-222-22-222-2-22-222-22-222-2-22-222-22-222-2-22-222-22-222-2--|
A---00-000-00-000-0-00-000-00-000-0-00-000-00-000-0-00-000-00-000-0--|
E--------------------------------------------------------------------|


Bridge pt2
Gtr 1
e----------------------------------------------------------------------------------|
B----------------------------------------------------------------------------------|
G---222--222--222--222--555--555---------------------------------------------------|
D---222--222--222--222--555--555--555--555-----------------------          X 2-----|
A---000--000--000--000--333--333--555--555-----------------------------------------|
E----------------------------------------------333--333----------------------------|
     xx    xx    xx   xx    xx    xx   xx    xx


Bridge pt2
Gtr 2
e------------------------------------------------------------------------------|
B------------------------------------------------------------------------------|
G---10-1010-10105-55-353--------------1010-1099-12-----------------------------|
D---x---x-x---x-x---x-xx-xxx--------------x--x---x-xx-x------------------------|
A---8---8-8---8-8---3-33-353--------------8--8---8-77-10-----------------------|
E------------------------------------------------------------------------------|

Song Order

Intro
Main riff
Verse pt1
Verse pt2
Chours
Main riff
Verse pt1
Verse pt2
Chours
Bridge
Chours

And thats it, please please add us, we realy need your suport
www.myspace.com/thesectioned
This song is taken from the forth coming unamed debuet e.p
Tap to rate this tab
 
# A B C D E F G H I J K L M N O P Q R S T U V W X Y Z