Song name
# A B C D E F G H I J K L M N O P Q R S T U V W X Y Z

Misc Unsigned Bands - Black Elemente - The End tab

(intro)
e-------------------------------/----------------------------------------|
b-------------------------------/----------------------------------------|
g-------------------------------/----------------------------------------|
d-7--9 10 9--7--9-10-9-7--9-10-9/--3---7-5-------------------------------|
a-7----------7---------7--------/-3-3-5----------------------------------|
e-7-7-7-7-7----7-7-7-----7-7-7--/-3---5----------------------------------|
                       (repeat 3 more x)
(outro)                ( riff 1 )
e----------------/--------------------------------------------------------|
b----------------/--------------------------------------------------------|
g----------------/--------------------------------------------------------|
d-10-10-12-14-12-/-7---------3-----5-7-------10-10-12-14-12---------------|
a-8--8--10-10-10-/-7-7-8-7-3-3-5-7-5-7-7-8-7-8--8--10-10-10---------------|
e----------------/-7-7-7-7-3-3-5-5-5-7-7-7-7------------------------------|

(verse)
e-------------------------------------------------------------------------|
b-------------------------------------------------------------------------|
g-------------------------------------------------------------------------|
d-7-7-7-7-7-7-7-------------7-7-7-7-7-7-7-3-3-3-5-5-5---------------------|
a-7-7-7-7-7-7-7-8-8-8-8-8-8-7-7-7-7-7-7-7-3-3-3-5-5-5---------------------|
e-7-7-7-7-7-7-7-7-7-7-7-7-7-7-7-7-7-7-7-7-3-3-3-5-5-5---------------------|

( outro into chorus )

( chorus )                                 (  outro  )
e-------------------------------/----------------------------------------|
b-------------------------------/----------------------------------------|
g-------------------------------/----------------------------------------|
d-7-7---7-7-7-3-3-3-2-2-2-------/-10-10-10-12-14-12----------------------|
a-7-7-8-7-7-7-3-3-3-2-2-2-------/-8--8--8--10-10-10----------------------|
e-7-7-7-7-7-7-3-3-3-2-2-2-------/----------------------------------------|

(riff 2)   repeat 2x                                       0utro
e-----------------------------------------------------/------------------|
b----------------------------------------6-------8----/------------------|
g---9-7-5-4---9-10-14-12---9-7-5-4-------5-------7----/------------------|
d-7---------7------------7---------3-3-3---5-5-5------/7-----------------|
a-7---------7------------7---------3-3-3---5-5-5------/7-----------------|
e-7---------7------------7---------3-3-3---5-5-5------/7-----------------|

     (intro repeat )


   black elemente
Tap to rate this tab
# A B C D E F G H I J K L M N O P Q R S T U V W X Y Z