Song name
# A B C D E F G H I J K L M N O P Q R S T U V W X Y Z

Misc Unsigned Bands - Midweek - Far Away tab

-------------------------------------------------------------------------------
			                         Far Away - Midweek
-------------------------------------------------------------------------------
Tabbed by: Ben Werbner
Email: benwerbner@gmail.com

Tuning: Standard

Intro:

E---x----x--------x------------x---3--3--x--3----3--3------------------|
a---0----0---3---(3)---2----2--x---2--2--x--0----0--0------------------|
d---2----2-------(2)--------2--x---0--0--x--0----0--0------------------|
g---0----0-------(0)--------0--x---0--0--x--0----0--0------------------|
b---1----1-------(3)--------3--x---3--3--x--3----3--3------------------|
e---0----0-------(0)--------0--x---------------------------------------|

Verse:

E---x------x---x--x----x---x---x--x---------x--3--3--3---2-----------|
a---0------x---0--0----x---3--3---x---2--2--x--2--2--2---0-----------|
d---2------x---2--2----x---2--2---x---2--2--x--0--0--0---0-----------|
g---0h-2---x---2--2----x---0--0---x---0--0--x--0--0--0---0-----------|
b---1------x---1--1----x---3--3---x---3--3--x--3--3--3---x-----------|
e---0------x---0--0----x---0--0---x---0--0--x--0--0--0---x-----------|


Chorus:

Em 6 times
G 6 times
Em 6 times
C 6 times
Em 6 times
G 6 times
Em 6 times
D/F# 6 times

D/F#
-2-
-0-
-0-
-2-
-3-
-0-

Outro:

E----------------------------------------3------------------------------------------|(2)
a------------3-----------------2---------------------------------3--------2---------|
d--2-----------------2-----------2------------------------2-----------2-----2-------|
g-----0-----------------0-----------0--------------0--------0----------0-----0------|(2)
b--------1---------------------------------------3-------------1--------------------|(3)
e----------------------------------------------0------------------------------------|
Tap to rate this tab
# A B C D E F G H I J K L M N O P Q R S T U V W X Y Z