Song name
# A B C D E F G H I J K L M N O P Q R S T U V W X Y Z

Misc Unsigned Bands - Black Elemente - Till You Drop tab

drop d tuning

black elemente- matt daily, jim keith, noah boivin

                                            (  outro  )
e-----------------------------------/------------------------------|
b-----------------------------------/------------------------------|
g-----------------------------------/------------------------------|
d-4-4-6-7-6-4--2---6-9-7-6----------/-4-4-4-6/7---4-4-4-6/7--------|
a-4------------2-7------------------/-4-4-4-------4-4-4------------|
e-4------------2--------------------/-4-4-4-------4-4-4------------|

verse

e------------------------------------------------------------------|
b------------------------------------------------------------------|
g------------------------------------------------------------------|
d-4-4-4-4--6-7-6--4-4-4-4--6-7-6--2-2-2-2--6-7-6--2-2-2-2--6-7-6---|
a-4-4-4-4---------4-4-4-4---------2-2-2-2---------2-2-2-2----------|
e-4-4-4-4---------4-4-4-4---------2-2-2-2---------2-2-2-2----------|


e------------------------------------------------------------------|
b------------------------------------------------------------------|
g------------------------------------------------------------------|
d-0-0-0-0--6-7-6--0-0-0-0--6-7-6--2-2-2-2--6-7-6--2-2-2-2--6-7-6---|
a-0-0-0-0---------0-0-0-0---------2-2-2-2---------2-2-2-2----------|
e-0-0-0-0---------0-0-0-0---------2-2-2-2---------2-2-2-2----------|


(  chorus  )

e-------------------------------------------------------------------|
b-------------------------------------------------------------------|
g-11-------9--7--------9--11--------9--7----------------------------|
d-11-------9--7--------9--11--------9--7----------------------------|
a-9--------7--5--------7--9---------7--5----------------------------|
e-------------------------------------------------------------------|
         repeat 2 more x


riff


e-
b-
g-
d-4--4/5--2-4--4/5--2-4--4/5---2-4--4/5---2-0--0----2--2/3----------|
a-4-------2-4-------2-4--------2-4--------2-0-------2---------------|
e-4-------2-4-------2-4--------2-4--------2-0-------2---------------|
Tap to rate this tab
# A B C D E F G H I J K L M N O P Q R S T U V W X Y Z