Song name
# A B C D E F G H I J K L M N O P Q R S T U V W X Y Z

Misc Unsigned Bands - Red Eyes For Blue Skies - Latency tab

This is the entire tab of latency off of the new ep courtest of www.myspace.com/redeyesforblueskies

Intro:2x
eb|-2-2-2-2-0-0-0-0-2-2-2-2-0-0-0-0---------0---------------0-------|
Bb|-3-3-3-3-3-3-3-3-3-3-3-3-3-3-3-3---7-------7---7---8-------8---8-|
Gb|-2-2-2-2-2-2-2-2-2-2-2-2-2-2-2-2-----6-------6-------7-------7---|
Db|-0-0-0-0-0-0-0-0-0-0-0-0-0-0-0-0-4-----4---------5-----5---------|
Ab|-----------------------------------------------------------------|
Db|-----------------------------------------------------------------|

Verse:2x"The Less..."
eb|-2-2-2-2-0-0-0-0-2-2-2-2-0-0-0-0---------------------------------|
Bb|-3-3-3-3-3-3-3-3-3-3-3-3-3-3-3-3---------------------------------|
Gb|-2-2-2-2-2-2-2-2-2-2-2-2-2-2-2-2---------------------------------|
Db|-0-0-0-0-0-0-0-0-0-0-0-0-0-0-0-0-4-4-4-4-4-4-4-4-5-5-5-5-5-5-5-5-|
Ab|---------------------------------4-4-4-4-4-4-4-4-5-5-5-5-5-5-5-5-|
Db|---------------------------------4-4-4-4-4-4-4-4-5-5-5-5-5-5-5-5-|
                                    . . . . . . . . . . . . . . . .

Pre Chorus:2x"So find your escape..."
eb|-----------------------|
Bb|-----------------------|
Gb|-----------------------|
Db|-9-9-x-x-7-7-x-x-5-5---|
Ab|-9-9-x-x-7-7-x-x-5-5~~-|
Db|-9-9-x-x-7-7-x-x-5-5~~-|

Chorus:4x "Can we start over?"
eb|-----------------------------------------------------------------|
Bb|-----------------------------------------------------------------|
Gb|-----------------------------------------------------------------|
Db|-5-5-5-5-5-5-5-5-7-7-7-7-7-7-7-7-9-9-9-9-9-9-9-9-7-7-7-7-7-7-7-7-|
Ab|-5-5-5-5-5-5-5-5-7-7-7-7-7-7-7-7-9-9-9-9-9-9-9-9-7-7-7-7-7-7-7-7-|
Db|-5-5-5-5-5-5-5-5-7-7-7-7-7-7-7-7-9-9-9-9-9-9-9-9-7-7-7-7-7-7-7-7-|

Intro:2x
eb|-2-2-2-2-0-0-0-0-2-2-2-2-0-0-0-0---------0---------------0-------|
Bb|-3-3-3-3-3-3-3-3-3-3-3-3-3-3-3-3---7-------7---7---8-------8---8-|
Gb|-2-2-2-2-2-2-2-2-2-2-2-2-2-2-2-2-----6-------6-------7-------7---|
Db|-0-0-0-0-0-0-0-0-0-0-0-0-0-0-0-0-4-----4---------5-----5---------|
Ab|-----------------------------------------------------------------|
Db|-----------------------------------------------------------------|

Verse:2x"Pin a heart"
eb|-2-2-2-2-0-0-0-0-2-2-2-2-0-0-0-0---------------------------------|
Bb|-3-3-3-3-3-3-3-3-3-3-3-3-3-3-3-3---------------------------------|
Gb|-2-2-2-2-2-2-2-2-2-2-2-2-2-2-2-2---------------------------------|
Db|-0-0-0-0-0-0-0-0-0-0-0-0-0-0-0-0-4-4-4-4-4-4-4-4-5-5-5-5-5-5-5-5-|
Ab|---------------------------------4-4-4-4-4-4-4-4-5-5-5-5-5-5-5-5-|
Db|---------------------------------4-4-4-4-4-4-4-4-5-5-5-5-5-5-5-5-|
                                    . . . . . . . . . . . . . . . .

Pre Chorus:2x
eb|-----------------------|
Bb|-----------------------|
Gb|-----------------------|
Db|-9-9-x-x-7-7-x-x-5-5---|
Ab|-9-9-x-x-7-7-x-x-5-5~~-|
Db|-9-9-x-x-7-7-x-x-5-5~~-|

Chorus:4x
eb|-----------------------------------------------------------------|
Bb|-----------------------------------------------------------------|
Gb|-----------------------------------------------------------------|
Db|-5-5-5-5-5-5-5-5-7-7-7-7-7-7-7-7-9-9-9-9-9-9-9-9-7-7-7-7-7-7-7-7-|
Ab|-5-5-5-5-5-5-5-5-7-7-7-7-7-7-7-7-9-9-9-9-9-9-9-9-7-7-7-7-7-7-7-7-|
Db|-5-5-5-5-5-5-5-5-7-7-7-7-7-7-7-7-9-9-9-9-9-9-9-9-7-7-7-7-7-7-7-7-|

Intro:2x
eb|-2-2-2-2-0-0-0-0-2-2-2-2-0-0-0-0---------0---------------0-------|
Bb|-3-3-3-3-3-3-3-3-3-3-3-3-3-3-3-3---7-------7---7---8-------8---8-|
Gb|-2-2-2-2-2-2-2-2-2-2-2-2-2-2-2-2-----6-------6-------7-------7---|
Db|-0-0-0-0-0-0-0-0-0-0-0-0-0-0-0-0-4-----4---------5-----5---------|
Ab|-----------------------------------------------------------------|
Db|-----------------------------------------------------------------|

Verse:2x "Hope is in the air..."
eb|-2-2-2-2-0-0-0-0-2-2-2-2-0-0-0-0---------------------------------|
Bb|-3-3-3-3-3-3-3-3-3-3-3-3-3-3-3-3---------------------------------|
Gb|-2-2-2-2-2-2-2-2-2-2-2-2-2-2-2-2---------------------------------|
Db|-0-0-0-0-0-0-0-0-0-0-0-0-0-0-0-0-4-4-4-4-4-4-4-4-5-5-5-5-5-5-5-5-|
Ab|---------------------------------4-4-4-4-4-4-4-4-5-5-5-5-5-5-5-5-|
Db|---------------------------------4-4-4-4-4-4-4-4-5-5-5-5-5-5-5-5-|
                                    . . . . . . . . . . . . . . . .

Pre Chorus:2x
eb|-----------------------|
Bb|-----------------------|
Gb|-----------------------|
Db|-9-9-x-x-7-7-x-x-5-5---|
Ab|-9-9-x-x-7-7-x-x-5-5~~-|
Db|-9-9-x-x-7-7-x-x-5-5~~-|

Chorus:4x
eb|-----------------------------------------------------------------|
Bb|-----------------------------------------------------------------|
Gb|-----------------------------------------------------------------|
Db|-5-5-5-5-5-5-5-5-7-7-7-7-7-7-7-7-9-9-9-9-9-9-9-9-7-7-7-7-7-7-7-7-|
Ab|-5-5-5-5-5-5-5-5-7-7-7-7-7-7-7-7-9-9-9-9-9-9-9-9-7-7-7-7-7-7-7-7-|
Db|-5-5-5-5-5-5-5-5-7-7-7-7-7-7-7-7-9-9-9-9-9-9-9-9-7-7-7-7-7-7-7-7-|

Intro:2x
eb|-2-2-2-2-0-0-0-0-2-2-2-2-0-0-0-0---------0---------------0-------|
Bb|-3-3-3-3-3-3-3-3-3-3-3-3-3-3-3-3---7-------7---7---8-------8---8-|
Gb|-2-2-2-2-2-2-2-2-2-2-2-2-2-2-2-2-----6-------6-------7-------7---|
Db|-0-0-0-0-0-0-0-0-0-0-0-0-0-0-0-0-4-----4---------5-----5---------|
Ab|-----------------------------------------------------------------|
Db|-----------------------------------------------------------------|
Tap to rate this tab
# A B C D E F G H I J K L M N O P Q R S T U V W X Y Z