Song name
# A B C D E F G H I J K L M N O P Q R S T U V W X Y Z

Misc Unsigned Bands - Midweek- Slipping Dream tab

-------------------------------------------------------------------------------
			     Slipping Dream- Midweek
-------------------------------------------------------------------------------
Tabbed by:  Ben Werbner
Email: benwerbner@gmail.com

Tuning: Standard

Capo 3

Intro:
e|---------0----------------------------------------------------------------------|
B|--------------0---------------------1p0-----------------------------------------|
G|-----0---------0----------------0--------0----------------0---------------------|
D|---2-------------2--------0h2--------------------------0-------------4----------|
A|--2---------------------3--------------------------0h2--------3p2----5----------|
E|---------------------------------------------------3------------------2---------|
Verse:
e|---------0-----------------------------------------------------------------------|
B|--------------0---------------------1p0------------------------------------------|
G|-----0---------0----------------0--------0----------------0----------------------|   X2
D|---2-------------2--------0h2--------------------------0-------------------------|
A|--2---------------------3--------------------------0h2--------3p2----------------|
E|---------------------------------------------------3----------------------0------|

Pre-Chorus:
e|-----0-----------0-----------0---------0------------------------------------|
B|-----1-----------0-----------1---------1------------------------------------|
G|-----2-----------0-----------0---------2------------------------------------|
D|-----2-----------2-----------2---------2------------------------------------|
A|-----0-----------2-----------3---------0------------------------------------|
E|-----0-----------0-----------x---------0------------------------------------|

Chorus:
e|--1--------0----------0---------0---------0--------0-------0-------0-------|
B|--1--------1----------1---------3---------1--------3-------1-------1-------|
G|--2--------2----------0---------0---------2--------0-------0-------2-------|
D|--3--------2----------2---------0---------2--------2-------2-------2-------|
A|--3--------0----------3---------2---------0--------2-------3-------0-------|
E|--1--------0----------x---------3---------0--------0-------x-------0-------|

Outro:
e|------------------------------------------------------------------------------|
B|-------------1------------1------------------1--------------------------------|
G|-------2-----------2-------------0-----------------------0--------------------|
D|----------2-----------2--------------0h2----------2---------------------------|
A|-----0----------0------------3-------------------------2---------(2)----------|
E|---------------------------------------------------0-----------0--------------|

h= hammer-on
p =pull-off
( )= let note ring
x =Mute note
Tap to rate this tab
# A B C D E F G H I J K L M N O P Q R S T U V W X Y Z