Song name
# A B C D E F G H I J K L M N O P Q R S T U V W X Y Z

Misc Unsigned Bands - Mashed Potato - Dreamin tab

DREAMIN' by Mashed Potato 
Tabbed by: Alpie Ruiz
Email: alpie_mashedotato@yahoo.com
INTRO:

   A                         E-F#m              D                      E
e|-----9------------------------------------------9---------------------12---|
B|---------10---10---10s12---12-----------10h12-------10---10---10s12--------|
G|---------------------------------10h12-------------------------------------|
D|---------------------------------------------------------------------------|
A|---------------------------------------------------------------------------|
E|---------------------------------------------------------------------------|


   A                         E-F#m              D                      E
e|-----9------------------------------------------9---------------------12---|
B|---------10---10---10s12---12-----------10h12-------10---10---10s12--------|
G|---------------------------------10h12-------------------------------------|
D|---------------------------------------------------------------------------|
A|---------------------------------------------------------------------------|
E|---------------------------------------------------------------------------|

 A              E  F#m
    Lying in my bed
  D                      E
    I see the moonlight gazing through my window
  A                  E  F#m
    Staring at the stars
  D                          E
    Rememb'ring when i was yours and when you are mine
  A              E  F#m                 
    Crying in despair
  D                             E
    Thinking within myself why did i ever let you go
                 (Repeat intro)
refrain:
                              A
    I'll wait for you in my dreams
          E              F#m           D  E
    Where i can make up for lost reality
            A
    In my dreams
           E               F#m          D
    Where i can have the sweetest fantasy
             E
    Of only you and me
chorus:
              A
   'Coz I'm dreaming 
        E                             F#m         D
    Of being with you letting me love you once again
       A
    Dreaming
          E                                   F#m   
    That you can fill the empty space in my heart and in my soul
     D                         A (intro)
    Never will I be alone no more

    (same chords as verse one)
    It's making me insane
    When is this pain ever gonna go away
    Calling out your name
    Thinking this is the way to ease up my pain
    Still hoping in prayer
    That is still be you and me someday
    (repeat Refrain and Chorus)


INSTRUMENTAL:
e|--------------------------------------------------------------------------------|
B|--------------------------------------------------------------------------------|
G|----9-----------------6--7--9---7-------10-9-7-9-7---7-----------7s10---6--7--9-|
D|--------7---9---7--9----------------7--------------9---9-7-9-7-6----------------|
A|--------------------------------------------------------------------------------|
E|--------------------------------------------------------------------------------|


e|----12---------------------9--10--12---10--------------14--15--16---12---14--12-|
B|---------10---11---10--11-------------------10--15--16--------------------------|
G|--------------------------------------------------------------------------------|
D|--------------------------------------------------------------------------------|
A|--------------------------------------------------------------------------------|
E|--------------------------------------------------------------------------------|

Repeat refrain with a smooth solo guitar strum
Repeat chorus
ENDING: Instrumental art

THANK YOU ALL AND GOD BLESS...!!!!!
Hope you like it!!!
Tap to rate this tab
# A B C D E F G H I J K L M N O P Q R S T U V W X Y Z