Song name
# A B C D E F G H I J K L M N O P Q R S T U V W X Y Z

Misc Unsigned Bands - Writing In Whispers - The Day tab

2x
|---------------------------|
|---------------------------|
|-------8-------------0-----|
|-----9---9---------9---9---|
|---7-------7-----7-------7-|
|-0-------------8-----------|

2x
|---------------------------|
|-------8-------------------|
|---------------------0-----|
|-----9---9---------9---9---|
|---7-------7-----7-------7-|
|-0-------------8-----------|
Tap to rate this tab
# A B C D E F G H I J K L M N O P Q R S T U V W X Y Z