Guitaretab - guitar tabs
Song name
# A B C D E F G H I J K L M N O P Q R S T U V W X Y Z

Misc Unsigned Bands - The Harcourt Arms - Bang Your Head On The Desk tab

Bang Your Head On The Desk - The Harcourt Arms

The Harcourt Arms are the best band of all time...they are a melbourne based rock trio.

Jamie - Intraments
Steve - Singer
Drum Machine - Machiney Things

Hello, this is carl... this is my first tab, hope you like it!!

The song starts off on an A open chord, try to barre the D, G, and B strings with your 
finger

|-----------------------------------|
|--2--------------------------------|
|--2--------------------------------|
|--2--------------------------------|
|-----------------------------------|
|-----------------------------------|

Then with your middle finger, fret G.

|-----------------------------------|
|--2--------------------------------|
|--2--------------------------------|
|--2--------------------------------|
|--x--------------------------------|
|--3--------------------------------|

So the intro goes...
[ Tab from: http://www.guitaretab.com/m/misc-unsigned-bands/74127.html ]
|-----------------------------------|
|--2--2--2--2--2--2--2~-------------|
|--2--2--2--2--2--2--2~-------------|         << That is the main riff for the chorus, 
to get the timing right.
|--2--2--2--2--2--2--2~-------------|
|--------x--x--x--x-----------------|
|--------3--3--3--3-----------------|


For the verses this is the riff..


   F

|--1--------------------------------|
|--1--------------------------------|
|--2--------------------------------|
|--3--------------------------------|            << Jamie is such an excellent guitarist 
sometimes his palm mutes turn
|--3--------------------------------|               into a real chord...so go with the flow.
|--1--------------------------------|

pm...

I hope you enjoy this song it's my favourite off the debut self-titled album!!

Tabbed By Carl... www.myspace.com/carlsgotmyspace

Bang Your Head On The Desk - The Harcourt Arms

www.myspace.com/theharcourtarms
Related for The Harcourt Arms - Bang Your Head On The Desk tab
×
The Harcourt Arms - Bang Your Head On The Desk