Song name
# A B C D E F G H I J K L M N O P Q R S T U V W X Y Z

Misc Unsigned Bands - The Gentlemen - Electricity tab

why has no one tabbed this great song by a great band


its just such a good intro, and im pretty sure this is right


e|----------------------------------------------------------------------------|
B|----------------------------------------------------------------------------|
G|----------------4---2--------2---6---4---7---4------2------2-------2--------|
D|---0---0---5------------0--------------------------------------0------------|
A|----------------------------------------------------------------------------|
E|----------------------------------------------------------------------------|

e|----------------------------------------------------------------------------|
B|----------------------------------------------------------------------------|
G|-----------------4---2--------2---6---9---12---9------11------11---11-------|
D|----0---0---5------------0--------------------------------------------------|
A|----------------------------------------------------------------------------|
E|----------------------------------------------------------------------------|

i cant take full credit cos someone on the gentlemen forum helped me out
Tap to rate this tab
 
# A B C D E F G H I J K L M N O P Q R S T U V W X Y Z