Song name
# A B C D E F G H I J K L M N O P Q R S T U V W X Y Z

Misc Unsigned Bands - Balboa - Tell Me Why tab

Highlighted       Show chord diagrams
Intro
e----------------------------------------------------------------------|
b----------1-----------------1---------------1--------------1----------|
g------0-----0---0------0------0---0-----2-----2--2------2----2----2---|
d----2---2-----2------2----2-----2------2--2-----2-----2--2------2-----|
a--3-----------------3-----------------0-------------0-----------------|
E----------------------------------------------------------------------|

e-----------------------------------------------------1---------|
b--------0---------------0------------------0---------0---------|
g-----0----0--0------0-----0---0-------0------0--0----0---------|
d---2--2-----2-----2---2-----2-------0----0-----0-----0---------|
a--2--------------2----------------2------------------2---------|
E-----------------------------------------------------3---------|
Verse1
           C                    Am
There's a man on the streets, laying on the ground,
  Em                     G
watching all the people, as they walk around,
      C                 Am
its very cold outside, as he lifts his head,
 Em                        G
and then i felt his pain as i see his bed.

Chorus
 C              Am
Tell me why i really want to know
  Em                    G
but everytime i ask the answers always no
      C         Am
tell me why he said just for a dime
Em                     G
and so i sat on my seat and said ill make the time,

Verse 2
I took him to a cafe, for a bite to eat,
he said wow what a feeling, to get off the streets,
he said he had a job with really good pay,
and then a mental illness came and took it all away,

CHORUS

Verse 3
Now he's really bad, and he's all left alone,
all because some person took away his home
these days its different, on streets disease is spread,
and now the man on the streets he aint alive he's dead,
Tap to rate this tab
# A B C D E F G H I J K L M N O P Q R S T U V W X Y Z