Song name
# A B C D E F G H I J K L M N O P Q R S T U V W X Y Z

Misc Unsigned Bands - Hastwerk - Klaimsen tab

Found this song on http://www.myspace.com/hastwerk/

cool heavy tune, with a beatuiful clean part on the end.

Main Riff

    D5  		 D#5
d|---------------------------------------------------|
a|---------------------------------------------------|
f|---------------------------------------------------|
c|---------------------------------------------------|
g|--2----2-2--3-2-0------3---3-3---------------------|
D|--0----0-0-------------1---1-1--3-1--0-------------|

PM       . .                 . .

Verse

    D5  		 D#5
d|--------------------------------------------------|
a|--------------------------------------------------|
f|--------------------------------------------------|
c|--------------------------------------------------|
g|--2----2-2-2-2-2-2-----3---3-3-3-3-3-3------------|
D|--0----0-0-0-0-0-0-----1---1-1-1-1-1-1------------|

PM       ...........         ...........

Chorus
    G5        F5	  C5	       F5
d|--------------------------------------------------|
a|--------------------------------------------------|
f|--------------------------------------------------|
c|------------------------77777777777---------------|
g|--77777777--555555555---55555555555--55555555555--|
D|--55555555--333333333----------------33333333333--|


Clean Part


d|--------------------------------------3-0-3-0--------------------|
a|-------3-1-3-1--------3-1-3-1-------0--------------0h1--3/5/3--1-|
f|-----------------------------------------------------------------|
c|----2--------------2---------------------------------------------|
g|--0--------------3-----------------------------------------------|
D|----------------------------------3------------------------------|


Clean Lead

d|---------------------------------------------------|
a|------------------------13~~~~~~~~------13/0-------|
f|--------(18)b17--17/12------------------------(14--|last time only
c|----19---------------------------------------------|
g|---------------------------------------------------|
D|---------------------------------------------------|


d|--0-~-----------0-~---------------3-~-----------0--------|
a|--1-~-----------1-~---------------0-~-----------1--------|
f|--2-~-----------0-~---------------0-~-----------2--------|
c|--2-~-----------2-~---------------0-~-----------3--------|
g|--0-~-----------3-~---------------2-~--------------------|
D|----------------------------------3-~--------------------|
Tap to rate this tab
# A B C D E F G H I J K L M N O P Q R S T U V W X Y Z