Song name
# A B C D E F G H I J K L M N O P Q R S T U V W X Y Z

Misc Unsigned Bands - The Contenders - Dont Worry tab

Help us improve GuitareTab! Take a short survey!
-------------------------------------------------------------------------------
			     Don't Worry - The Contenders
-------------------------------------------------------------------------------
Tabbed by:Matthew B
Email:pinxtmagic91@hotmail.co.uk

Tuning:EADGBe
  Guitar 1 Intro
e|---------------------------------------------------------------------------------|
B|---------------------------------------------------------------------------------|
G|---------------------------------------------------------------------------------|
D|-11-11-11-11-11-11-11-11-11-11-11-11-11-11-11-11-9-9-9-9-9-9-9-9-9-9-9-9-9-9-9-9-|
A|-9--9--9--9--9--9--9--9--0--0--0--0--0--0--0--0--7-7-7-7-7-7-7-7-9-9-9-9-9-9-9-9-|
E|-----------------------------------------------------------------7-7-7-7-7-7-7-7-|
  PALM MUTED     PALM MUTED      PALM MUTED     PALM MUTED       PALM MUTED

   Guitar 2
e|---------------------------------------------------------------------------|
B|---------------------------------------------------------------------------|
G|---------------------------------------------------------------------------|
D|---------------------------------------------------------------------------|
A|---------------------------------------------------------------------------|
E|---------------------------------------------------------------------------|
  Guitar 1    (bass + guitar 2 + drums all come in)
e|---------------------------------------------------------------------------------|
B|---------------------------------------------------------------------------------|
G|---------------------------------------------------------------------------------|
D|-11-11-11-11-11-11-11-11-11-11-11-11-11-11-11-11-9-9-9-9-9-9-9-9-9-9-9-9-9-9-9-9-|
A|-9--9--9--9--9--9--9--9--0--0--0--0--0--0--0--0--7-7-7-7-7-7-7-7-9-9-9-9-9-9-9-9-|
E|-----------------------------------------------------------------7-7-7-7-7-7-7-7-|

  Guitar 2
e|-9--9--9--9--9--9--9--9--9--9--9--9--9--9--9--9----------------------------------|
B|-10-10-10-10-10-10-10-10-10-10-10-10-10-10-10-10-9-9-9-9-9-9-9-9-----------------|
G|-11-11-11-11-11-11-11-11-11-11-11-11-11-11-11-11-9-9-9-9-9-9-9-9-8-8-8-8-8-8-8-8-|
D|-11-11-11-11-11-11-11-11-11-11-11-11-11-11-11-11-9-9-9-9-9-9-9-9-9-9-9-9-9-9-9-9-|
A|-9--9--9--9--9--9--9--9--0--0--0--0--0--0--0--0--7-7-7-7-7-7-7-7-9-9-9-9-9-9-9-9-|
E|-----------------------------------------------------------------7-7-7-7-7-7-7-7-|
  VerseX2
  Guitar 1
e|---------------------------------------------------------------------------------|
B|---------------------------------------------------------------------------------|
G|---------------------------------------------------------------------------------|
D|-11-11-11-11-11-11-11-11-11-11-11-11-11-11-11-11-9-9-9-9-9-9-9-9-9-9-9-9-9-9-9-9-|X2
A|-9--9--9--9--9--9--9--9--0--0--0--0--0--0--0--0--7-7-7-7-7-7-7-7-9-9-9-9-9-9-9-9-|
E|-----------------------------------------------------------------7-7-7-7-7-7-7-7-|


  Guitar 2
e|-9--9--9--9--9--9--9--9--9--9--9--9--9--9--9--9----------------------------------|
B|-10-10-10-10-10-10-10-10-10-10-10-10-10-10-10-10-9-9-9-9-9-9-9-9-----------------|
G|-11-11-11-11-11-11-11-11-11-11-11-11-11-11-11-11-9-9-9-9-9-9-9-9-8-8-8-8-8-8-8-8-|
D|-11-11-11-11-11-11-11-11-11-11-11-11-11-11-11-11-9-9-9-9-9-9-9-9-9-9-9-9-9-9-9-9-|X2
A|-9--9--9--9--9--9--9--9--0--0--0--0--0--0--0--0--7-7-7-7-7-7-7-7-9-9-9-9-9-9-9-9-|
E|-----------------------------------------------------------------7-7-7-7-7-7-7-7-|
  Chorus x2 Both Guitars
e|---------------------------------------------------------------------------|
B|---------------------------------------------------------------------------|
G|---------------------------------------------------------------------------|
D|-----11---12---11-------11---12---11-------9---11---9----------------------|
A|-9-9----9----9----9-0-0----0----0----0-7-7---7----7---7-----9---10---9-----|
E|---------------------------------------------------------7-7---7----7---7--|
  Solo Guitar 2 (Guitar 1 normal verse)
e|-16---16---16-16--16p-14p--12-12----------------16--16--16-16-14-12-14-12-11-12-11--------------------------------------------|
B|---------------------------------14-12/14-12---------------------------------------12/9-14-14-12h-14p-12---12-----------------|
G|---------------------------------------------13----------------------------------------------------------13---13-11-9h-11-----|
D|--------------------------------------------------------------------------------------------------------------------------11--|
A|------------------------------------------------------------------------------------------------------------------------------|
E|------------------------------------------------------------------------------------------------------------------------------|

 INTRO                    I don't mind being left behind
 VERSEx2                  For someone else to find
 CHORUSx2                 I never really wanted you
 VERSEx4                  and you were never mine
 CHORUSx2
 VERSEx4                  You stared right through me,
 SOLO                     There's nothing to see
 VERSEx5                  Don't worry, I'll be fine
| /  slide up
| \  slide down           In my dreams I'm supposed to be
| h  hammer-on            A hero
| p  pull-off             In reality, it's not what it seems
| ~  vibrato              I don't know where to go
| +  harmonic
| x  Mute note
===============================================================================
Related for The Contenders - Dont Worry tab