Song name
# A B C D E F G H I J K L M N O P Q R S T U V W X Y Z

Misc Unsigned Bands - Optikull Illusion - Skate And Create tab

band name: optikull illusion
song name: skate and create

during verse one the strumming goes "down up down down down down down down down down 
down"


[bass line]
e --------------------------------------------------------------------|
b --------------------------------------------------------------------|
g --------------------------------------------------------------------|
d --------------------------------------------------------------------|
a ---------------7---7--7-7--------------5-5-7--7-7-------------------|
e --6--6-6-6-6-6---6--------6--6-6-6-6-6------------------------------|

[verse one]
e --------------------------------------------------------------------|
b --------------------------------------------------------------------|
g --------------------------------------------------------------------|
d --12-12-12-12-12-12-12-12-12-12-12-12---9-9-9-9-9-9-9-9-9-9-9-9-----|
a --12-12-12-12-12-12-12-12-12-12-12-12---9-9-9-9-9-9-9-9-9-9-9-9-----|
e --10-10-10-10-10-10-10-10-10-10-10-10---7-7-7-7-7-7-7-7-7-7-7-7-----|

e --------------------------------------------------------------------|
b --------------------------------------------------------------------|
g --------------------------------------------------------------------|
d --7-7-7-7-7-7-7-7-7-7-7-7---8-8-8-8-8-8-8-8-8-8-8-8-----------------|
a --7-7-7-7-7-7-7-7-7-7-7-7---8-8-8-8-8-8-8-8-8-8-8-8-----------------|
e --5-5-5-5-5-5-5-5-5-5-5-5---6-6-6-6-6-6-6-6-6-6-6-6-----------------|
[end of verse one]

[bass line]

[verse one]

[bass line]
Tap to rate this tab
# A B C D E F G H I J K L M N O P Q R S T U V W X Y Z