Song name
# A B C D E F G H I J K L M N O P Q R S T U V W X Y Z

Misc Unsigned Bands - Violence - Jesus The Brokebackcowboy Rides Again tab

VIOLENCE
Jesus The Brokeback Cow Rides Again
From The 2006 EP "Bedroom Demos".
Transcribbed by Jerry Podsiadlik

Guitars used
Guitar 1 - Lead Electric Guitar (overdrove)
Guitar 2 - Rhy. Electric Guitar (distorted)
Guitar 3 - Electric Guitar (clean)

All Guitars are tuned in Dropped D (DADGBE)

^ indicated bend on note(s)
. indicated palm mutting on note(s)
= indicated pushing your strings with the side of your hand down better pickups to get a 
(you can only do this on a guitar that has humbuckers)
~ indicated hold note(s)


Intro (guitar 3 only)

e-----------------------------|
b-----------------------------|
g--16---16-16-16-16-----------|
d-----------------------------| 4 times (on last bend Guitar 1 plays it)
a--14---14-14-14-14-----------|
d-----------------------------|
    ^

Verse
Guitar 1 (play fast)
e---------------------------------------------------------|
g---------------------------------------------------------|any slides
g-----3------3--------3---3-----3------3/-12/18/13/17-----|around the area
d-0-0-x--0-0-x--0-0---x-0-x-0-0---0-0--x--x--x--x--x------|sound fine
a-0-0-1--0-0-1--0-0---1-0-1-0-0-1-0-0--1/-10/16/11/15-----|
d-0-0----0-0----0-0-----0---0-0---0-0---------------------|


Guitar 2 (play fast)
e---------------------------------------------------------|
g---------------------------------------------------------|same slides
g-----3------3--------3---3-----3------3/-12/18/13/17-----|as guitar 1
d-0-0-x--0-0-x--0-0---x-0-x-0-0---0-0--x--x--x--x--x------|of you can play
a-0-0-1--0-0-1--0-0---1-0-1-0-0-1-0-0--1/-10/16/11/15-----|lower ones if you
d-0-0----0-0----0-0-----0---0-0---0-0---------------------|want
  . .    . .    . .     .   . .   . .

Play verse 5 times then for the last note play this

Guitar 1
e-----
b-----
g-16~-
d-x---
a-14~-
d-----
  ^
              Hold the bends till you get feedback
Guitar 2
e-----
b-----
g-10~-
d-x---
a-8~--
d-----
  ^

(Guitar 3 (and Guitar 1 on last note) will then play intro for talking part.)

Outro
e-1-1-=-1-1-=-1-1-=-1-1-=-0-0-=-0-0-=--0-0-=~--|
b-1-1-=-1-1-=-1-1-=-1-1-=-0-0-=-0-0-=--0-0-=~--|
g-1-1-=-1-1-=-1-1-=-1-1-=-0-0-=-0-0-=--0-0-=~--|
d----------------------------------------------|
a----------------------------------------------|
e----------------------------------------------|
Tap to rate this tab
 
# A B C D E F G H I J K L M N O P Q R S T U V W X Y Z