Guitaretab - guitar tabs
Song name
# A B C D E F G H I J K L M N O P Q R S T U V W X Y Z

Misc Unsigned Bands - Sweet Honesty - The Hospital Song tab

Intro:
E|-------------------------------|
B|-------------------------------|
G|-----------------6-------5-----|
D|-5-------9-------6-------5-----|
A|-5-------9-------5-------3-----|
E|-3-------7---------------------|

Chorus/Verses
|------------------------------------------------------|
|------------------------------------------------------|
|------------------------------6-6-6-6-6--5-5-5-5-5----|
|--5-5-5-5-5--9-9-9-9-9--6-6-6-6-6--5-5-5-5-5----------|
|--5-5-5-5-5--9-9-9-9-9--5-5-5-5-5--3-3-3-3-3----------|
|--3-3-3-3-3--7-7-7-7-7--------------------------------|
[ Tab from: http://www.guitaretab.com/m/misc-unsigned-bands/74482.html ]
Bridge
|------------------------------------|
|------------------------------------|
|----------5-5-5--7-7-7--9-9-9-------|
|-2-2-2--5-5-5--7-7-7--9-9-9---------|
|-2-2-2--3-3-3--5-5-5--7-7-7---------|
|-0-0-0------------------------------|

EmÖ End?
|-0
|-0
|-0
|-3
|-2
|-0


CHORUS:
When you get out of the hospital
Please let me back into your life
I didnít mean to hurt you so
And I never wanna see you go.

VERSE:
When you get out of the hospital
Please let me back into your life
I found these words written on the wall:
Permanent marker in a bathroom stall.
In the john only down the hall
ĎCause you know how it is when duty calls.

BRIDGE:
White tile floors.
Surgically clean wooden doors.
Hospitals with eleven floors.
You couldnít ask for more.

CHORUS x2


I didnít mean to hurt you that night,
But you still know I love you, right?
Just because I pushed you down the stairs,
It doesnít mean that I donít care.

END (spoken)
Canít you take a joke, baby?
Related for Sweet Honesty - The Hospital Song tab