Song name
# A B C D E F G H I J K L M N O P Q R S T U V W X Y Z

Misc Unsigned Bands - Trailer Park Marlee - Bellview tab

Belleview
Intro
E|----------------------|
B|----------------------|
G|----------------5-55--|
D|-6-66-3-33-5-55-5-55--| x4
A|-6-66-3-33-5-55-3-33--|
E|-4-44-1-11-3-33-------|

Verse: (bass)
E|------------------------------------------------|
B|------------------------------------------------|
G|---------------5-55----------------5-55---------|
D|-6-------------5-55-6--------------5-55---------| x2
A|-6-------------3-33-6--------------3-33---------|
E|-4-44-1-11-3-33-----4-44-1-11-3-33--------------|

Chorus
E|----------------------|
B|----------------------|
G|----------------5-55--|
D|-6-66-3-33-5-55-5-55--| x2
A|-6-66-3-33-5-55-3-33--|
E|-4-44-1-11-3-33-------|

E|------------------------------------------------|
B|------------------------------------------------|
G|---------------5-55----------------5-55---------|
D|-6-------------5-55-6--------------5-55---------| x2
A|-6-------------3-33-6--------------3-33---------|
E|-4-44-1-11-3-33-----4-44-1-11-3-33--------------|

E|-------------------------------------------|
B|-------------------------------------------|
G|-------------------------------------------|
D|-8-88-88-88-9-99-99-99-8-88-88-88-9-99-11--| x2
A|-8-88-88-88-9-99-99-99-8-88-88-88-9-99-11--|
E|-6-66-66-66-7-77-77-77-6-66-66-66-7-77-9---|

Chorus
E|----------------------|
B|----------------------|
G|----------------5-55--|
D|-6-66-3-33-5-55-5-55--| x2
A|-6-66-3-33-5-55-3-33--|
E|-4-44-1-11-3-33-------|

E|------------------------------------------------|
B|------------------------------------------------|
G|---------------5-55----------------5-55---------|
D|-6-------------5-55-6--------------5-55---------| x2
A|-6-------------3-33-6--------------3-33---------|
E|-4-44-1-11-3-33-----4-44-1-11-3-33--------------|



E|-------------------------------------------|
B|-------------------------------------------|
G|-------------------------------------------|
D|-8-88-88-88-9-99-99-99-8-88-88-88-9-99-11--| x2
A|-8-88-88-88-9-99-99-99-8-88-88-88-9-99-11--|
E|-6-66-66-66-7-77-77-77-6-66-66-66-7-77-9---|


Solo: (rhythm)
E|----------------------|
B|----------------------|
G|----------------5-55--|
D|-6-66-3-33-5-55-5-55--| x6
A|-6-66-3-33-5-55-3-33--|
E|-4-44-1-11-3-33-------|

Solo: (lead) wait 2 times
E|--------------------------------------|
B|--------------------------------------|
G|--------------------------------------|
D|-3-3-5-5--108-6-8-3-3-5-5--108-6~~----| x2
A|--------------------------------------|
E|--------------------------------------|

E|-------------------------------------------|
B|-------------------------------------------|
G|-------------------------------------------|
D|-8-88-88-88-9-99-99-99-8-88-88-88-9-99-11--| x2
A|-8-88-88-88-9-99-99-99-8-88-88-88-9-99-11--|
E|-6-66-66-66-7-77-77-77-6-66-66-66-7-77-9---|

E|----------------------|
B|----------------------|
G|----------------5-55--|
D|-6-66-3-33-5-55-5-55--| x4 end on the first c on the 4th time
A|-6-66-3-33-5-55-3-33--|
E|-4-44-1-11-3-33-------|








Tap to rate this tab
# A B C D E F G H I J K L M N O P Q R S T U V W X Y Z