Song name
# A B C D E F G H I J K L M N O P Q R S T U V W X Y Z

Misc Unsigned Bands - Bleeding Angels Cry - The Warrior tab

Only one guitar in this acoustic track

e|------------------------------------|
B|------------------------------------|
G|------------------------------------|
D|-----2-----3---3------0--------7----|
A|---4---4-----4------5---5----7---7--|
E|-0--------4-------5--------5--------|

VERSE (x2)  
 (x15)(x15)(x4)(x8)(x4)(x8)
e|----|----|---|---|---|---|
B|----|----|---|---|---|---|
G|----|----|---|---|---|---|
D|-6--|----|-7-|-5-|-7-|-9-|
A|-4--|-4--|-7-|-5-|-7-|-9-|
E|----|-6--|-5-|-3-|-5-|-7-|

PRE CHORUS (x4)
e|------------------------------------|
B|------------------------------------|
G|-----6--------6---------------------|
D|---6---6----6---6------6--------6---|
A|---------------------6---6----6---6-|
E|-4--------4--------4--------4-------|

CHORUS(x2)
e|----|----|----|----|
B|----|----|----|----|
G|----|----|----|----|
D|-5c-|-7c-|----|----|
A|-5c-|-8c-|-7c-|----|
E|----|----|-8c-|-7c-|

VERSE (x2)  
 (x15)(x15)(x4)(x8)(x4)(x8)
e|----|----|---|---|---|---|
B|----|----|---|---|---|---|
G|----|----|---|---|---|---|
D|-6--|----|-7-|-5-|-7-|-9-|
A|-4--|-4--|-7-|-5-|-7-|-9-|
E|----|-6--|-5-|-3-|-5-|-7-|

PRE CHORUS (x4)
e|------------------------------------|
B|------------------------------------|
G|-----6--------6---------------------|
D|---6---6----6---6------6--------6---|
A|---------------------6---6----6---6-|
E|-4--------4--------4--------4-------|

CHORUS(x2)
e|----|----|----|----|
B|----|----|----|----|
G|----|----|----|----|
D|-5c-|-7c-|----|----|
A|-5c-|-8c-|-7c-|----|
E|----|----|-8c-|-7c-|

OUTRO(x2)
e|------------------------------------------------|
B|------------------------------------------------|
G|------------------11-11-11----------------------|
D|-----7--9--9--9------------11-11-11-------------|
A|---7--------------------------------11-11-11----|
E|-7--------------------------------------------9-|
Tap to rate this tab
# A B C D E F G H I J K L M N O P Q R S T U V W X Y Z