Song name
# A B C D E F G H I J K L M N O P Q R S T U V W X Y Z

Misc Unsigned Bands - Terra Naomi - Say Its Possible tab

E|------3---3-3-3---3-3-3--------------|E
B|------3---3-3-3---3-3-3--------------|B
G|------0---0-0-0---0-0-0--------------|G
D|--2-2-2-0-2-2-2-0-0-0-0-0------------|D
A|--2-2---0-3-3---0-2-2---0-0-0-0------|A
E|--0-0-------------3-3-----2-3-2-0----|E

E|------3---3-3-3---3-3-3--------------|E
B|------3---3-3-3---3-3-3--------------|B
G|------0---0-0-0---0-0-0--------------|G
D|--2-2-2-0-2-2-2-0-0-0-0-0------------|D
A|--2-2---0-3-3---0-2-2---0-0-0-0------|A
E|--0-0-------------3-3-----2-3-2-0----|E

E|------3---3-3-3---3-3-3--------------|E
B|------3---3-3-3---3-3-3--------------|B
G|------0---0-0-0---0-0-0--------------|G
D|--2-2-2-0-2-2-2-0-0-0-0-0------------|D
A|--2-2---0-3-3---0-2-2---0-0-0-0------|A
E|--0-0-------------3-3-----2-3-2-0----|E

E|------3---3-3-3---3-3-3--------------|E
B|------3---3-3-3---3-3-3--------------|B
G|------0---0-0-0---0-0-0--------------|G
D|--2-2-2-0-2-2-2-0-0-0-0-0------------|D
A|--2-2---0-3-3---0-2-2---0-0-0-0------|A
E|--0-0-------------3-3-----2-3-2-0----|E

E|------3---3-3-3---3-3-3--------------|E
B|------3---3-3-3---3-3-3--------------|B
G|------0---0-0-0---0-0-0--------------|G
D|--2-2-2-0-2-2-2-0-0-0-0-0------------|D
A|--2-2---0-3-3---0-2-2---0-0-0-0------|A
E|--0-0-------------3-3-----2-3-2-0----|E

That's probably most of the whole song :) enjoy ^^ note: i did i a couple of times cause 
had to have min of 300 words or watever :P
Tap to rate this tab
# A B C D E F G H I J K L M N O P Q R S T U V W X Y Z