Song name
# A B C D E F G H I J K L M N O P Q R S T U V W X Y Z

Misc Unsigned Bands - The Vipers - Gothkilla Inxs tab

Help us improve GuitareTab! Take a short survey!
The Vipers: Gothkilla INXS
h=hammer on
r=release

Intro and Verse:
 |------(2x)-------|-------(2x)------|
1|-----------------|-----------------|
2|-----------------|-----------------|
3|-----------------|-----------------(11x)
4|-----------------|0-11-0-10-0-9-0-8|
5|0-11-0-10-0-9-0-8|-----------------|
6|-----------------|-----------------|

Pre-Chorus:
 |----(2x)-----|
1|3-3-3-3-3-3--|
2|3-3-3-3-3-3--|
3|------------2|
4|------------2|
5|-------------|
6|3-3-3-3-3-3--|

Chorus:
 |----(2x)-----|
1|3-3---3-----2|2-2-2-2-2-2-2-2-2-2-2|
2|3-3---3-----3|3-3-3-3-3-3-3-3-3-3-3|
3|----2---2-2-2|2-2-2-2-2-2-2-2-2-2-2|
4|----2---2-2--|---------------------|
5|-------------|---------------------|
6|3-3---3------|---------------------|

Verse

Pre-Chorus

Chorus

Interlude:
1|11-11-11-12-11-11-11-12-10-10-10-11-10-10-11------------------|
2|--------------------------------------------------------------|
3|--------------------------------------------------------------|
4|--------------------------------------------------------------|
5|--------------------------------------------------------------|
6|---------------------------------------------11h12h13-13r12r11|

Chorus(2x)

End:

1|----|
2|----|
3|4(r)|
4|4(r)|
5|2(r)|
6|----|
Related for The Vipers - Gothkilla Inxs tab