Song name
# A B C D E F G H I J K L M N O P Q R S T U V W X Y Z

Misc Unsigned Bands - Defiant - Tears Inside Me tab

----------------------------------------------------------------------------
			     Tears Inside Me - Defiant
----------------------------------------------------------------------------
Tabbed by: Ben Freestone
Email: rock_for_freedom@hotmail.co.uk

Tuning: Standard

Guitar 1
Part 1                        Part 2
e|---------------------------|----------------------------|
B|---------------------------|----------------------------|
G|---------------------------|----------------------------|
D|-------------4h5 ----5-4---|-------------4h5-----7-5-4~-|
A|-----7-5-----------------5~|-----7-5--------------------|
E|-0-0-----0-0-----0-0-------|-0-0-----0-0-----0-0--------|    

Part 1 (again)                Part 3
e|---------------------------|----------------------------|
B|---------------------------|----------------------------|
G|---------------------------|----------------------------|
D|-------------4h5 ----5-4---|-------------5-----7--------|
A|-----7-5-----------------5~|-----7-5-----3-----5--------|
E|-0-0-----0-0-----0-0-------|-0-0-----0-0----------------|       

Guitar 2

e|---------------------------|----------------------------|
B|---------------------------|----------------------------|
G|---------------------------|----------------------------|
D|---------------------------|----------------------------|
A|-2-2-----2-2-----2-2-------|-2-2-----2-2-----2-2--------|
E|-0-0-----0-0-----0-0-------|-0-0-----0-0-----0-0--------|    
P.m---     ----    ---         ---     ---     ---


Will post more when i can be botherd...


| /  slide up
| \  slide down
| h  hammer-on
| p  pull-off
| ~  vibrato
| +  harmonic
| x  Mute note
===============================================================================
Tap to rate this tab
# A B C D E F G H I J K L M N O P Q R S T U V W X Y Z