Song name
# A B C D E F G H I J K L M N O P Q R S T U V W X Y Z

Misc Unsigned Bands - The Williwaw Ingrates - Gust Of Wind tab

Williwaw Ingrates
Gust of Wind

Intro

|-----------------|
|-----------------|
|-----------------|
|-6-6-6--6-6-6--6-|
|-6-6-6--6-6-6--6-|
|-4-4-4--3-3-3--4-| 4x

Verse

|---|
|---|
|---|
|---|
|-6-|
|-4-| repeat as needed

Prechorus

|--------------------------------|
|--------------------------------|
|--------------------------------|
|--------------------------------|
|-2-2-2-2-2--4--5-5-5--5b1/2--5--|
|-0-0-0-0-0--2--3-3-3--3b1/2--3--| 2x

Chorus

|----------|
|----------|
|-9-9------|
|-9-9-9-7--|
|-7-7-9-7--|
|-----7-5--| 7x

Ending

|---------|
|---------|
|---------|
|---9---9-|
|-9-x-9-x-|
|-7-7-7-7-| 2x

Tap to rate this tab
# A B C D E F G H I J K L M N O P Q R S T U V W X Y Z