Song name
# A B C D E F G H I J K L M N O P Q R S T U V W X Y Z

Misc Unsigned Bands - The Williwaw Ingrates - Seven Minutes tab

The Williwaw Ingrates
Seven Minutes

Verse (no intro)

|-16h17-17-17-17-17-17p16-17----------------------11h12-12-12-12-12-12p11-12-|
|----------------------------------------------------------------------------|
|----------------------------------------------------------------------------|
|--------------------------------7-7-7-7-7-7-7-------------------------------|
|--------------------------------7-7-7-7-7-7-7-------------------------------|
|--------------------------------5-5-5-5-5-5-5-------------------------------|

-----------------|
-----------------|
-----------------|
-2-2-2-2-2-2-2-2-|
-2-2-2-2-2-2-2-2-|
-0-0-0-0-0-0-0-0-|

Pre Chorus

|--------------------------------------------|
|--------------------------------------------|
|--------------------------------------------|
|-2-2-2-2-2--6-6-6-6-6--2-2-2-2-2--7-7-7-7-7-|
|-2-2-2-2-2--6-6-6-6-6--2-2-2-2-2--7-7-7-7-7-|
|-0-0-0-0-0--4-4-4-4-4--0-0-0-0-0--5-5-5-5-5-|

Chorus

|--------------7p5-5--4-------|
|---------------------5-gtr.1-|
|---------------------4-------|
|-9-9-9-9-9-9---------2-------|
|-9-9-9-9-9-9---------2-gtr.2-|
|-7-7-7-7-7-7---------0-------|

ending
              gtr.1 gtr.2
|-------------|-12-|-12-|
|-------------|-12-|-9--|
|-------------|-9--|-9--|
|-2-----------|----|----|
|-2-as needed-|----|----|
|-0---------------------|
|-0-----------|----|----|

h is hammer on, p is pull off gtr. is guitar

Notes for Beginners

hammer on is when you have one finger (anchor) on the fret, and the next finger, higher 
hits, hammers the fret without plucking.  Pull off is when you hammer on, and then you 
your higher finger off into the fret board.
Tap to rate this tab
 
# A B C D E F G H I J K L M N O P Q R S T U V W X Y Z