Song name
# A B C D E F G H I J K L M N O P Q R S T U V W X Y Z

Misc Unsigned Bands - The Williwaw Ingrates - Extrowhoardinary tab

The Williwaw Ingrates
Extrowhoardinary
Standard Tuning

Intro

|-11-11-11p10p9p8--12-12-12p10p9p8-|
|----------------------------------|
|----------------------------------|
|----------------------------------|
|----------------------------------|
|----------------------------------|

verse

|----------------------------------------------------------------
|----------------------------------------------------------------
|--------------------------------------------------------5-5-5-5-
|-10-10-10-10-10-10-10-10--8-8-8-8-8-8-8-8--6-6-6-6-6-6--5-5-5-5-
|-8--8--8--8--8--8--8--8---6-6-6-6-6-6-6-6--4-4-4-4-4-4--3-3-3-3-
|----------------------------------------------------------------

--------------|
--------------|
-5/9/5--5/9/5-|
-5/9/5--5/9/5-|
-3/7/3--3/7/3-|
--------------|

Chorus

|----------------------|
|----------------------|
|----------------------|
|----------------------|
|-2-2-2-2-2--4-4-4-4-4-|
|-0-0-0-0-0--2-2-2-2-2-|

Outro (intro 4x, then

|-13wi.vb.-|
|----------|
|----------|
|----------|
|----------|
|----------|

Legend

/#/ = quick slide
wi.vb. = wide vibrato
p = pull off

Have a flipping awesome day
Tap to rate this tab
 
# A B C D E F G H I J K L M N O P Q R S T U V W X Y Z