Song name
# A B C D E F G H I J K L M N O P Q R S T U V W X Y Z

Misc Unsigned Bands - The Williwaw Ingrates - Our Other Side tab

The Williwaw Ingrates
Our Other Side
*(to be played on an acoustic)

I'm not sure about the verses and choruses so I'll just put the straight out tab.  If
ever hear the song (it's really good)then you can re-tab it with it divided into verses
all that stuff.  Enjoy this.

|-5-5-12-12-12-12-5-5-13-13-13-13vb.-|
|------------------------------------|
|------------------------------------|
|------------------------------------|
|------------------------------------|
|------------------------------------|

|---------------------------------------------------------------|
|---------------------------------------------------------------|
|---------------------------------------------------------------|
|-7-7--7-7-7-7---5-5--5-5-5-5-----------------------------------|
|-7-7--7-7-7-7---5-5--5-5-5-5----5-5-5-5-5-5-5--7-7-7-7-7-7-7-7-|
|-5-5--4-4-4-4---3-3--2-2-2-2----2-2-2-2-2-2-2--5-5-5-5-5-5-5-5-|

|----------5-5-5-5---------------------------|
|----------7-7-7-7---------------------------|
|----------5-5-5-5---------------------------|
|-7-7-7-7------------5-5-5-5--5-5-5-5-5hd--7-|
|-7-7-7-7------------5-5-5-5--5-5-5-5-5hd--7-|
|-5-5-5-5------------3-3-3-3--2-2-2-2-2hd--5-|

That's real nice.
Tap to rate this tab
 
# A B C D E F G H I J K L M N O P Q R S T U V W X Y Z