Song name
# A B C D E F G H I J K L M N O P Q R S T U V W X Y Z

Misc Unsigned Bands - Downfall - Pleasure Pain tab

e----------0-----------------------------------|
B----1-------1---1--------x2-------------------|
G------2-------2-------------------------------|
D--2-----2-------------------------------------|
A----------------------------------------------|
E----------------------------------------------|


e----------0----------------------------------|
B----1-------1---1--------x2------------------|
G------2-------2------------------------------|
D--3-----3------------------------------------|
A---------------------------------------------|
E---------------------------------------------|


e----------0----------------------------------|
B----1-------1---1--------x2------------------|
G------2-------2------------------------------|
D--0-----0------------------------------------|
A---------------------------------------------|
E---------------------------------------------|


e----------0-------------------3---------------| (let ring)
B----1-------1---1-------1---------------------|
G------0-------0-----------0-------------------|
D--0-----0-------------0-----0-----------------|
A----------------------------------------------|
E----------------------------------------------|
Tap to rate this tab
# A B C D E F G H I J K L M N O P Q R S T U V W X Y Z