Song name
# A B C D E F G H I J K L M N O P Q R S T U V W X Y Z

Misc Unsigned Bands - The Burning Orchids - Where Were You tab

 This is an acoustic-ish song.
 Most of the song is played with a chorus effect.
 The song is in standard. E A D G B e.
 
 

 W/ chorus fx.  both guitars clean
intro. ( guitar 2 doesn't play for a while. )
|-----------------|
|-----------------|
|---0---0---0---0-|
|--4---4---4---4--| X2
|-2---3---5---5---|
|-----------------|

verse
|--------------------------------------------------|
|--------------------------------------------------|
|----0----0----0----0------------------------------|
|---4----4----4----4-----9------9------9------9----| X2
|--2----2----5----5----10-10--10-10--10-10--10-10--|
|-0----0----3----3----8------8------7------7-------|

play the intro again
|-----------------|
|-----------------|
|---0---0---0---0-|
|--4---4---4---4--| X2
|-2---3---5---5---|
|-----------------|

then play the verse one more time
|-------------------------------------------------|
|-------------------------------------------------|
|----0----0----0----0-----------------------------|
|---4----4----4----4-----9------9------9------9---|
|--2----2----5----5----10-10--10-10--10-10--10-10-|
|-0----0----3----3----8------8------7------7------|

play the intro one last time
|-----------------|
|-----------------|
|---0---0---0---0-|
|--4---4---4---4--| X2
|-2---3---5---5---|
|-----------------|

then play the chorus w/o chorus fx.
Chorus
|-0-0000-0-0000-----3-3-333-2-22-222-0-00-|
|-0-0000-0-0000-----0-0-000-3-33-333-1-11-|
|-0-0000-0-0000-----0-0-000-2-22-222-0-00-| X2
|-2-2222-2-2222-----0-0-000-0-00-000-2-22-|
|-2-2222-2-2222-----2-2-222-0-00-000-3-33-|
|-0-0000-0-0000-0h2-3-3-333---------------|

|-0--0-0---|
|-0--0-0---|
|-0--0-0---|
|-2--2-2---|
|-2--2-2---|
|-0--0-0---|

chorus pt 2
both guitars play now w/ dist.
|----------------------------------------------------------|
|----------------------------------------------------------|
|----------------------------------------------------------|
|----------------------------------------------------------| X2
|-2222-2-2222-2-2222-----5-5555-5-5555-10-1010-12-9h10p9---|
|-0000-0-0000-2-0000-0h2-3-3333-3-3333-8--8-8--10-------10-|
Pm....

bridge
guitar 1 only. no dist. add the chorus fx.
|-------------------------------------------------|
|-------------------------------------------------|
|---0---0---0---0---0---0---0---0---0---0---0---0-|
|--4---4---4---4---4---4---4---4---4---4---4---4--|
|-2---3---5---5---2---3---5---5---2---3---5---5---|
|-------------------------------------------------|

both guitars w/o chorus fx. add heavy dist.
|---------------------------|
|---------------------------|
|-4444444555555777777777777-
|-xxxxxxxxxxxxxxxxxxxxxxxxx-
|-2222222333333555555555555-
|---------------------------

play the chorus one more time.
|---------------------------------------------------------|
|---------------------------------------------------------|
|---------------------------------------------------------|
|---------------------------------------------------------| X2
|-2222-2-2222-2-2222-----5-5555-55555-10-1010-12-9h10p9---|
|-0000-0-0000-0-0000-0h2-3-3333-33333-8--8-8--10-------10-|
Pm....

outro both guitars
|-------------------|
|-------------------|
|-------------------|
|-------------------|
|-2-2222-2---v\\\\\-|
|-0-0000-0---v\\\\\-|
Pm  ....

guitar 1 no fx. or dist.
|-0--3-2-3-0--3-2-3-0--3-2-3-5-3-2-3--0--|
|-------------------------------------0--|
|-------------------------------------0--|
|-------------------------------------2--|
|-------------------------------------2--|
|-------------------------------------0--|


WELL!!! there it is. one of our songs.
i'll put the other 3 songs we wrote on sometime soon.
untill then, have fun with this song.

any questions or comments e-mail me at nate_the_tate_2006@yahoo.com

TTTTTTTT BBBBBBB    0000000    ###  SSSSS
   T     B      B  O       O    ## S
   T     B   BBB  O         O       SSSS
   T     B      B  O       O            S
   T     BBBBBBB    OOOOOOO        SSSSS
Tap to rate this tab
 
# A B C D E F G H I J K L M N O P Q R S T U V W X Y Z