Song name
# A B C D E F G H I J K L M N O P Q R S T U V W X Y Z

Misc Unsigned Bands - Dartmouth Mars - Oh The Davidians tab

verse one-both guitars
--------------------------------------------------------------|
--------------------------------------------------------------|
--7-556677-9-778899-11-9910101111-----------------------------|
--6--------8--------10----------------------------------------|
--5--------7--------9-----------------------------------------|
--------------------------------------------------------------|
x4
verse two-guitar one
--------------------------------------------------------------|
--------------------------------------------------------------|
--------------------------------------------------------------|
--------------------------------------------------------------|
---7-6-5-3-4-5------------------------------------------------|
--------------------------------------------------------------| x8

verse two - guitar two
--------------------------------------------------------------|
--------------------------------------------------------------|
-------------77-7--77-7--77-7--77-77-7------------------------|
--0-0-0-0----66-6--66-6--66-6--66-66-6------------------------|
--0-0-0-0----55-5--55-5--55-5--55-55-5------------------------|
--0-0-0-0-----------------------------------------------------| x1

breakdown-both guitars
--------------------------------------------------------------|
--------------------------------------------------------------|
-77-77-77-77-77-77-7--8--9------------------------------------|
-66-66-66-66-66-66-6--7--8------------------------------------|
-55-55-55-55-55-55-5--6--7------------------------------------|
--------------------00-00-------------------------------------|

bridge-guitar one
--------------------------------------------------------------|
--------------------------------------------------------------|
--99-99999-99-99999-------------------------------------------|
--88-88888-88-88888-------------------------------------------|
--77-77777-77-77777-------------------------------------------|
----0-----0--0------------------------------------------------|

bridge-guitar two
--------------------------------------------------------------|
--------------------------------------------------------------|
--------------------------------------------------------------|
--------------------------------------------------------------|
------7656----------------------------------------------------|
--------------------------------------------------------------|

verse one-both guitars
--------------------------------------------------------------|
--------------------------------------------------------------|
--7-556677-9-778899-11-9910101111-----------------------------|
--6--------8--------10----------------------------------------|
--5--------7--------9-----------------------------------------|
--------------------------------------------------------------| x4

verse three-both guitars
--------------------------------------------------------------|
--------------------------------------------------------------|
----77777---let-ring------------------------------------------|
----66666-----------------------------------------------------|
----55555-----------------------------------------------------|
--------------------------------------------------------------|

verse one-both guitars
--------------------------------------------------------------|
--------------------------------------------------------------|
--7-556677-9-778899-11-9910101111-----------------------------|
--6--------8--------10----------------------------------------|
--5--------7--------9-----------------------------------------|
--------------------------------------------------------------|x2
Tap to rate this tab
# A B C D E F G H I J K L M N O P Q R S T U V W X Y Z