Song name
# A B C D E F G H I J K L M N O P Q R S T U V W X Y Z

Misc Unsigned Bands - Dartmouth Mars - Moral Of Le Story tab

intro-both guitars
--------------------------------------------------|
--------------------------------------------------|
---9999999999999---910910---987---9999999999------|
---8888888888888-0-89-89----876---8888888888------|
---7777777777777-0-78-78----765---7777777777------|
-----------------0------0000----------------------|

bridge
--------------------------------------------------|
--------------------------------------------------|
--------------------------------------------------|
--------------drum-solo---------------------------|
--------------------------------------------------|
00000-00000---------------------------------------|

verse two- guitar one
---------------------------------------------------------|
---------------------------------------------------------|
---------------------11--------111111--------------------|
---987---987---987---10--------101010--------------------|
---------------------9---------9-9-9---------------------|
---------------------------------------------------------|

verse two-guitar two
--------------------------------------------------|
--------------------------------------------------|
--------------------------------------------------|
--------------------------------------------------|
-------765---765---765-0000000000000000-----------|
-----------------------0000000000000000-----------|

bridge-both guitars
--------------------------------------------------|
--------------------------------------------------|
--11111111-----11---------------------------------|
--10101010-----10----drum-ride-ding-then-outro----|
--9-9-9-9------9----------------------------------|
----------00-00-----------------------------------|

outro-both guitars
--------------------------------------------------|
--------------------------------------------------|
---111111111111111111111111111111----11-----------|
---101010101010101010101010101010-00-10-----------|
---9-9-9-9-9-9-9-9-9-9-9-9-9-9-9--00-9------------|
----------------------------------00--------------|
Tap to rate this tab
# A B C D E F G H I J K L M N O P Q R S T U V W X Y Z