Song name
# A B C D E F G H I J K L M N O P Q R S T U V W X Y Z

Misc Unsigned Bands - Dartmouth Mars - Hoboken Czar tab

intro-Acoustic guitar one
--------------------------------------------------|
--------------------------------------------------|
--11------11------11------11----------------------|
----10-10---10-10---10-10---10-10-----------------|
------9-------9-------8-------8-------------------|
--------------------------------------------------|

verse one-guitar one
--------------------------------------------------|
--------------------------------------------------|
--------------------------------------------------|
00-000---------------------0------0---------------|
00-000---------------------0------0---------------|
00-000---------------------0------0---------------|
                                                      verse one x
verse one-guitar two
--------------------------------------------------|
--------------------------------------------------|
------11-------------111111-111111-1111-----------|
--------10-10--------101010-101010-1010-----------|
----------9----------9-9-9--9-9-9--9-0------------|
--------------------------------------------------|

verse one pt 2-guitar one (math metal section)
--------------------------------------------------|
--------------------------------------------------|
---11---------------------111111------11-------11-|
-----10--101010-101010--10------10--10--1010-10---|
--------9--------------9----------99--------9-----| x2
--------------------------------------------------|

verse one pt 2-guitar two (math metal section)
-----------------------|
-----------------------|
----11-----------------|    light strumming
----10-----------------|    math metal section finishes
----9------------------|    and goes on alone, no drums.
-----------------------|    two crash hits, blastbeats

verse two-both guitar (blastbeats)
--------------------------------------------------|
--------------------------------------------------|
---9999-9999999-999999999-98-98-9999--------------|
---8888-8888888-888888888-87-87-8888--------------|
---7777-7777777-777777777-76-76-7777--------------|
-------0-------0------------0--0------------------|
Tap to rate this tab
 
# A B C D E F G H I J K L M N O P Q R S T U V W X Y Z