Song name
# A B C D E F G H I J K L M N O P Q R S T U V W X Y Z

Misc Unsigned Bands - The Force - Heart Attack tab

THE FORCE: "HEART ATTACK"
Tabbed by: SethMegadefan
Tuning: Standard
4/4 Swing beat

INTRO
|------------------------|------------------------|
|5---------------------5-|----------------------5-|
|5b6b5-3-----3---------5b|6-b-5-3-----3~--------5b|
|----------5-----5-------|----------5-------------|
|------------------------|------------------------|
|------------------------|------------------------|

|------------------------|------------------------|
|----------------------5-|------------------------|
|6-b-5-3-----3---------5b|6-b-5-3-----3-3-3-3-3-3-|
|----------5-----5-------|----------5-------------|
|------------------------|------------------------|
|------------------------|------------------------|

VERSE RIFF
|3---3-----3-----3-----3-|----3-----3-6---3-6-----|
|3---3-----3-----3-----3-|----3-----3-6---3-6-----|
|4---4-----4-----4-----4-|----4-----4-7---4-7-----|
|5---5-----5-----5-----5-|----5-----5-8---5-8-----|
|5---5-----5-----5-----5-|----5-----5-8---5-8-----|
|3---3-----3-----3-----3-|----3-----3-6---3-6-----|

|3---3-----3-----3-----3-|----3-----3-6---3-6-----|
|3---3-----3-----3-----3-|----3-----3-6---3-6-----|
|4---4-----4-----4-----4-|----4-----4-7---4-7-----|
|5---5-----5-----5-----5-|----5-----5-8---5-8-----|
|5---5-----5-----5-----5-|----5-----5-8---5-8-----|
|3---3-----3-----3-----3-|----3-----3-6---3-6-----|

|3---3-----3-----3-----3-|----3-----3-6---3-6-----|
|5---5-----5-----5-----5-|----5-----5-8---5-8-----|
|5---5-----5-----5-----5-|----5-----5-8---5-8-----| *SEE*
|5---5-----5-----5-----5-|----5-----5-8---5-8-----|*NOTE 1*
|3---3-----3-----3-----3-|----3-----3-6---3-6-----|
|------------------------|------------------------|

|3---3-----3-----3-----3-|----3-----3-6---3-6-----|
|3---3-----3-----3-----3-|----3-----3-6---3-6-----|
|4---4-----4-----4-----4-|----4-----4-7---4-7-----|
|5---5-----5-----5-----5-|----5-----5-8---5-8-----|
|5---5-----5-----5-----5-|----5-----5-8---5-8-----|
|3---3-----3-----3-----3-|----3-----3-6---3-6-----|

|5---5-----5-----5-----5-|3---3-----3-----3-----3-|
|7---7-----7-----7-----7-|5---5-----5-----5-----5-|
|7---7-----7-----7-----7-|5---5-----5-----5-----5-|
|7---7-----7-----7-----7-|5---5-----5-----5-----5-|
|5---5-----5-----5-----5-|3---3-----3-----3-----3-|
|------------------------|------------------------|

|3---3-----3-----3-----3-|3/6-6-6-6-6-6\----------|
|3---3-----3-----3-----3-|3/6-6-6-6-6-6\----------|
|4---4-----4-----4-----4-|4/7-7-7-7-7-7\----------|
|5---5-----5-----5-----5-|5/8-8-8-8-8-8\----------|
|5---5-----5-----5-----5-|5/8-8-8-8-8-8\----------|
|3---3-----3-----3-----3-|3/6-6-6-6-6-6\----------|

CHORUS RIFF
|------------------------|------------------------|
|5---------------------5-|----------------------5-|
|5b6b5-3-----3---------5b|6-b-5-3-----3~--------5b|
|----------5-----5-------|----------5-------------|
|------------------------|------------------------|
|------------------------|------------------------|

|------------------------|-------------------------|
|----------------------5-|----------------------10-|
|6-b-5-3-----3---------5b|6-b-5-3-----3---5-----10b|
|----------5-----5-------|----------5--------------|
|------------------------|-------------------------|
|------------------------|-------------------------|

|-------------------------|------------------------|
|----------------------10-|----------------------5-|
|11b10-8-----8---------10b|11b10-8-----8~--------5b|
|----------10----10-------|----------10------------|
|-------------------------|------------------------|
|-------------------------|------------------------|

|------------------------|-------------------------|
|----------------------5-|----------------------12-|
|6-b-5-3-----3---------5b|6-b-5-3-----3---5-----12b|
|----------5-----5-------|----------5--------------|
|------------------------|-------------------------|
|------------------------|-------------------------|

|------------------------|-------------------------|
|---------------------10-|-----------------------5-|
|13b12-10----10~------10b|11b10-8-----8~---------5b|
|----------12------------|----------10-------------|
|------------------------|-------------------------|
|------------------------|-------------------------|

|------------------------|------------------------|
|------------------------|------------------------|
|6-b-5-3-----3-----------|------------------------|
|----------5-----5-----3-|5-----------------------|
|------------------------|----3-4---5-5-5-5-5-5-5-|
|------------------------|------------------------|

SOLO
|----15----15----15----18|----15------------------|
|--15----15----15--------|------18--1518--18b20---|
|17b19-17b19-17b19-------|------------------------|
|------------------------|------------------------|
|------------------------|------------------------|
|------------------------|------------------------|

|----15----15----15----18|----15------------------|
|--15----15----15--------|------18--1518--18b2018b|
|17b19-17b19-17b19-------|------------------------|
|------------------------|------------------------|
|------------------------|------------------------|
|------------------------|------------------------|

|-------------------------|------------------------|
|(20)1815----15--18----18b|(20)1815--------15------|
|----------17-------------|----------17------17--15|
|-------------------------|------------------------|
|-------------------------|------------------------|
|-------------------------|------------------------|

|-------------------------|-------------------------|
|-------------------------|-------------------------|
|15trill17~~~~~~~~~~~~~~~~|(*SEE NOTE 2*)--17b19-17b|
|-------------------------|-------------------------|
|-------------------------|-------------------------|
|-------------------------|-------------------------|

|-------------------------|-----------------------------|
|-----------------------15|18b20-1815----18b20-18b20-18b|
|(19)1715----15--17-------|-----------------------------|
|----------17-------------|-----------------------------|
|-------------------------|-----------------------------|
|-------------------------|-----------------------------|

|-------------------------|-------------------------------|
|(20)1815-----------------|-------------------------------|
|----------17-15----------|-------------------------------|
|-----------------17----15|17-----------------------------|
|-------------------------|----15-16-17-17-17-17-17-17-17-|
|-------------------------|-------------------------------|

*NOTE 1* You don't necessarily have to play the full chords. It sounds just fine if you 
do power chords; the full chords are just for extra emphasis.

*NOTE 2* Hold the trill, and while doing so, slowly push the whammy bar down and pull 
up


SONG STRUCTURE

Intro

Verse Riff

Chorus Riff

Verse Riff

Chorus Riff

Solo (+Verse Riff over it)

Verse Riff

Chorus Riff

Verse Riff

Keyboard Solo (+Verse Riff over it)

Chorus Riff
Tap to rate this tab
# A B C D E F G H I J K L M N O P Q R S T U V W X Y Z