Song name
# A B C D E F G H I J K L M N O P Q R S T U V W X Y Z

Misc Unsigned Bands - Sawtooth Grin - Satan Would Sit In The Smoking Section But Hes Afraid Of The Creepy Waitress tab

This is the best song you can ever play, boy.

Riff 1
e)----------------------------------------------------------|
B)------------------------------------------5h67h567p4747---|
G)---764h674h3p6846/8--------------23h563p56----------------|
D)-------------------35p673h567p3---------------------------|
A)----------------------------------------------------------|
D)----------------------------------------------------------|

Riff 2
e)------------------------------------------------------|
B)---3546h246p246h24h5h5h5------------------------------|
G)-----------------------------------2345p245h4p4p4-----|
D)--------------------------246246----------------5-----|
A)------------------------------------------------------|
D)------------------------------------------------------|

Riff 3
e)--5639505h03h87p3h0p5763p058----2h5245p452-------|
B)------------------------------4------------------|
G)-------------------------------------------------|
D)-------------------------------------------------|
A)-------------------------------------------------|
D)-------------------------------------------------|

Riff 4
e)--------------------------------------------------------|
B)--------------------------------67^---------------8-----|
G)------------------------56------96^---------------------|
D)----------------35735---------------000-000-00-000-0----|
A)--0003330000444------------000------000-000-00-000-0----|
D)--0003330000444------------000------000-000-00-000-0----|

Order
 Riff 1 6XXX
 Riff 2 2X
 Riff 3 2X
 Riff 4 8X
 Riff 1 13X
 Riff 3 1X
 Riff 4 18X and fade out

/=slide
^=vibrato
p=pull off
h=hammer on





Thank You
C-Dog aka Sg. Rowdy
Tap to rate this tab
 
# A B C D E F G H I J K L M N O P Q R S T U V W X Y Z