Song name
# A B C D E F G H I J K L M N O P Q R S T U V W X Y Z

Misc Unsigned Bands - Noreen - Silence Your Keys tab

NOREEN
Silence Your Keys
Walk Slow

Lyrics:
Speak soft,
Walk slow.
The lights are off,
do you think they know?
Speak soft,
Walk slow.
The lights are off,
do you think they know?

Anything!

And don't give reason to believe,
(just to see)
What we've done.

Come up these stairs
it's your turn to shine.
Come up these stairs
it's your turn to shine.

Anything!

And don't give reason to believe,
(just to see)
What we've done.

Let me see your (see your)
your pain, your pain.
Let me hear you(hear you)
scream my name
Let me see your (see your)
your pain, your pain.
Let me hear you(hear you)
scream my name

Anything!

And don't give reason to believe,
(just to see)
What we've done.

Come on girl let see your,
your pain!
(I try to believe you!)
Come on baby let me hear you scream my,
(can't make my self believe you!)
scream my name!
Scream!

You've brought to life my greatest fears.
Now it's my time to bring you tears.

Anything!

And don't give reason to believe,
(just to see)
What we've done.


Guitar 1

Intro - x2
E --------------------------------------------------------------------------------------|
B --------------------------------------------------------------------------------------|
G -9^-----10p9----9^-----12----12-----9^-----10p9-----12----12----10----10--------------|
D -10^--10-----10-10^-10----10----10--10^-10------10-----10----10----10---10------------|
A -8^-------------8^------------------8^------------------------------------------------|
D --------------------------------------------------------------------------------------|

end on
E ------------------------|
B ------------------------|
G -9~---------------------|
D -10~--------------------|
A -8~---------------------|
D -8~---------------------|


Verse 1
Part 1
E -----------------------------------------------------------------------------------------|
B -----------------------------------------------------------------------------------------|
G --------------------------------------------------------9p0-8p0-----------------9p0-8p0--|
D -8-8888-888-8888-888-8-8888-888-8888 10-0-0000-000-0000---------0-0000-000-0000----------|
A -8-8888-888-8888-888-8-8888-888-8888 10-0-0000-000-0000---------0-0000-000-0000----------|
D -8-8888-888-8888-888-8-8888-888-8888 10-0-0000-000-0000---------0-0000-000-0000----------|
   . ....     ....     . ....     ....    . ....     ....         . ....     ....

E -----------------------------------------------------------------------------------------|
B -----------------------------------------------------------------------------------------|
G --------------------------------------------------------9p0-8p0-----------------9p0-8p0--|
D -8-8888-888-8888-888-8-8888-888-8888 10-0-0000-000-0000---------0-0000-000-0000----------|
A -8-8888-888-8888-888-8-8888-888-8888 10-0-0000-000-0000---------0-0000-000-0000----------|
D -8-8888-888-8888-888-8-8888-888-8888 10-0-0000-000-0000---------0-0000-000-0000----------|
   . ....     ....     . ....     ....    . ....     ....         . ....     ....

Part 2-x2

E --------------------------------------------------------------------------------------|
B --------------------------------------------------------------------------------------|
G -9p0-8p0----------------------------9p0-8p0-------------------------------------------|
D ---------9p0-11p0-10p0-8p0-9p0--------------9p0-11p0-10p0-8p0-9p0---------------------|
A --------------------------------------------------------------------------------------|
D --------------------------------------------------------------------------------------|

E --------------------------------------------------------------------------------------|
B --------------------------------------------------------------------------------------|
G -7p0-6p0----------------------------7p0-6p0-------------------------------------------|
D ---------7p0-9p0-8p0-6p0-7p0----------------7p0-9p0-8p0-6p0-7p0-----------------------|
A --------------------------------------------------------------------------------------|
D --------------------------------------------------------------------------------------|


Chorus(Figure out Strumming) [I couldn't figure out the rest]
E ----------------------------------------|
B ----------------------------------------|
G -10--17-16-19-14-16---------------------|
D -x---x--x--x--x--x--0000-0-0000-0-00-0--|
A -8---15-14-17-12-14-0000-0-0000-0-00-0--|
D -0------------------0000-0-0000-0-00-0--|
                      ....   ....   ..

Verse 2
E --------------------------------------------------------------------------------------|
B ------------------8-8-8-8-8-8-8-8-----------------------------------------------------|
G -------------------7-7-7-7-7-7-7-7----------------------7-9-10------------------------|
D -000-0-000-0-00-0-------------------000-0-0-3-2-0-000-0-x-x-x-------------------------|
A -000-0-000-0-00-0-------------------000-0-0-3-2-0-000-0-5-7-8-------------------------|
D -000-0-000-0-00-0-------------------000-0-0-3-2-0-000-0-------------------------------|
   ...   ...   ..    . . . . . . . .  ...           ...

E --------------------------------------------------------------------------------------|
B ------------------8-8-8-8-8-8-8-8-----------------------------------------------------|
G -------------------7-7-7-7-7-7-7-7----------------------7-9-10------------------------|
D -000-0-000-0-00-0-------------------000-0-0-3-2-0-000-0-x-x-x-------------------------|
A -000-0-000-0-00-0-------------------000-0-0-3-2-0-000-0-5-7-8-------------------------|
D -000-0-000-0-00-0-------------------000-0-0-3-2-0-000-0-------------------------------|
   ...   ...   ..    . . . . . . . .  ...           ...

Verse 3

interlude part(Clean)
E --------------------------------------------------------------------------------------|
B --------------------------------------------------------------------------------------|
G ----9----9---12---9---9----9---10---12---10------12---12p(/)10----9---9----12---10----|
D --10---10--10---10--10---10--10---10---10----10-----10----------10--10---10---10------|
A -8----8---8----8--------8---8----8----8-----8--8---8-----------8---8----8----8--------|
D --------------------------------------------------------------------------------------|
                      ......................  ....
E ---------------------------|
B ---------------------------|
G --9h12-10--9---------------|
D --10---10--10--------------|
A --8----8---8---------------|
D ---------------------------|

Vocal Part
                   Strum(Clean)           Distortion(Over-Drive)
E -------------------------------------|-------------------------------------------------|
B -------------------------------------|-------------------------------------------------|
G -9-9-9-9--10101010-12121212-10101010-|-------------------------------------------------|
D -10101010-10101010-10101010-10101010-|-0-0000-0-0000-0-0000-0-0000---------------------|
A -8-8-8-8--8-8-8-8--8-8-8-8--8-8-8-8--|-0-0000-0-0000-0-0000-0-0000---------------------|
D -------------------------------------|-0-0000-0-0000-0-0000-0-0000---------------------|
                                           ....   ....   ....   ....
E -------------------------------------|-------------------------------------------------|
B -------------------------------------|-------------------------------------------------|
G -9-9-9-9--10101010-12121212-10101010-|-------------------------------------------------|
D -10101010-10101010-10101010-10101010-|-0-0000-0-0000-0-0000-0-0000---------------------|
A -8-8-8-8--8-8-8-8--8-8-8-8--8-8-8-8--|-0-0000-0-0000-0-0000-0-0000---------------------|
D -------------------------------------|-0-0000-0-0000-0-0000-0-0000---------------------|
                                           ....   ....   ....   ....
E -------------------------------------|-------------------------------------------------|
B -------------------------------------|-------------------------------------------------|
G -9-9-9-9--10101010-12121212-10101010-|-------------------------------------------------|
D -10101010-10101010-10101010-10101010-|-0-0000-0-0000-0-0000-0-0000---------------------|
A -8-8-8-8--8-8-8-8--8-8-8-8--8-8-8-8--|-0-0000-0-0000-0-0000-0-0000---------------------|
D -------------------------------------|-0-0000-0-0000-0-0000-0-0000---------------------|
                                           ....   ....   ....   ....
E -------------------------------------|-------------------------------------------------|
B -------------------------------------|-------------------------------------------------|
G -9-9-9-9--10101010-12121212-10101010-|-------------------------------------------------|
D -10101010-10101010-10101010-10101010-|-0-0000-0-0000-0-0000-0-0000---------------------|
A -8-8-8-8--8-8-8-8--8-8-8-8--8-8-8-8--|-0-0000-0-0000-0-0000-0-0000---------------------|
D -------------------------------------|-0-0000-0-0000-0-0000-0-0000---------------------|
                                           ....   ....   ....   ....
Break Down
E ----------------------------------------------------------------------------------------|
B -------------------11^------------------11^------------------11^------------------11^---|
G -------------------14^------------------14^------------------14^------------------14^---|
D -00-0000-00-00-0000---00-0000-00-00-0000---00-0000-00-00-0000---00-0000-00-00-0000------|
A -00-0000-00-00-0000---00-0000-00-00-0000---00-0000-00-00-0000---00-0000-00-00-0000------|
D -00-0000-00-00-0000---00-0000-00-00-0000---00-0000-00-00-0000---00-0000-00-00-0000------|
   .. .... .. .. ....   .. .... .. .. ....   .. .... .. .. ....   .. .... .. .. ....

Interlude-

Clean Part x5 or x6
E ----------------------------------------------------------------------------------------|
B ----13---------13-----------------------------------------------------------------------|
G -9~----9----9~--------------------------------------------------------------------------|
D -10~-----10-10~--10---------------------------------------------------------------------|
A -8~---------8~-----8--------------------------------------------------------------------|
D -8~---------8~--------------------------------------------------------------------------|

Distortion
Strum
E ----------------------------------------------------------------------------------------|
B ----------------------------------------------------------------------------------------|
G -9--------------------------------------------------------------------------------------|
D -10-------------------------------------------------------------------------------------|
A -8--------------------------------------------------------------------------------------|
D -8--------------------------------------------------------------------------------------|


Guitar 2
Intro - x2
E ----------------------------------------------------------------------------------------|
B ----------------------------------------------------------------------------------------|
G -9~-----9~------9~----------------------------------------------------------------------|
D -10~----10~-----10~---------------------------------------------------------------------|
A -8~-----8~------8~----------------------------------------------------------------------|
D ----------------------------------------------------------------------------------------|

Verse 1
E ---------------------------------------------------------------------------------------|
B ---------------------------------------------------------------------------------------|
G ---------------------------------------------------------------------------------------|
D -8-8888-888-8888-888-8-8888-888-8888 10-0-0000-000-0000-000-0000-0-0000-000-0000-000---|
A -8-8888-888-8888-888-8-8888-888-8888 10-0-0000-000-0000-000-0000-0-0000-000-0000-000---|
D -8-8888-888-8888-888-8-8888-888-8888 10-0-0000-000-0000-000-0000-0-0000-000-0000-000---|
   . ....     ....     . ....     ....    . ....     ....     .... . ....     ....
E ---------------------------------------------------------------------------------------|
B ---------------------------------------------------------------------------------------|
G ---------------------------------------------------------------------------------------|
D -8-8888-888-8888-888-8-8888-888-8888 10-0-0000-000-0000-000-0000-0-0000-000-0000-000---|
A -8-8888-888-8888-888-8-8888-888-8888 10-0-0000-000-0000-000-0000-0-0000-000-0000-000---|
D -8-8888-888-8888-888-8-8888-888-8888 10-0-0000-000-0000-000-0000-0-0000-000-0000-000---|
   . ....     ....     . ....     ....    . ....     ....     .... . ....     ....
E ---------------------------------------------------------------------------------------|
B ---------------------------------------------------------------------------------------|
G ---------------------------------------------------------------------------------------|
D -8-8888-888-8888-888-8-8888-888-8888 10-0-0000-000-0000-000-0000-0-0000-000-0000-000---|
A -8-8888-888-8888-888-8-8888-888-8888 10-0-0000-000-0000-000-0000-0-0000-000-0000-000---|
D -8-8888-888-8888-888-8-8888-888-8888 10-0-0000-000-0000-000-0000-0-0000-000-0000-000---|
   . ....     ....     . ....     ....    . ....     ....     .... . ....     ....
E ---------------------------------------------------------------------------------------|
B ---------------------------------------------------------------------------------------|
G ---------------------------------------------------------------------------------------|
D -8-8888-888-8888-888-8-8888-888-8888 10-0-0000-000-0000-000-0000-0-0000-000-0000-000---|
A -8-8888-888-8888-888-8-8888-888-8888 10-0-0000-000-0000-000-0000-0-0000-000-0000-000---|
D -8-8888-888-8888-888-8-8888-888-8888 10-0-0000-000-0000-000-0000-0-0000-000-0000-000---|
   . ....     ....     . ....     ....    . ....     ....     .... . ....     ....

Chorus x2(Couldn't figure out the end part)
E ----------------------------------------------------------------------------------------|
B ----------------------------------------------------------------------------------------|
G ----------------------------------------------------------------------------------------|
D -00000000000000000000000000-0000-0-0000-0-00-0------------------------------------------|
A -00000000000000000000000000-0000-0-0000-0-00-0------------------------------------------|
D -00000000000000000000000000-0000-0-0000-0-00-0------------------------------------------|
                              ....   ....   ..
Verse 2
E ----------------------------------------------------------------------------------------|
B ----------------------------------------------------------------------------------------|
G ----------------------------------------------------------------------------------------|
D -000-0-000-0-00-0-000-0-000-0-00-0--000-0-0-3-2-0-000-0-5-7-8---------------------------|
A -000-0-000-0-00-0-000-0-000-0-00-0--000-0-0-3-2-0-000-0-5-7-8---------------------------|
D -000-0-000-0-00-0-000-0-000-0-00-0--000-0-0-3-2-0-000-0-5-7-8---------------------------|
   ...   ...   ..   ...   ...   ..    ...           ...
E ----------------------------------------------------------------------------------------|
B ----------------------------------------------------------------------------------------|
G ----------------------------------------------------------------------------------------|
D -000-0-000-0-00-0-000-0-000-0-00-0--000-0-0-3-2-0-000-0-5-7-8---------------------------|
A -000-0-000-0-00-0-000-0-000-0-00-0--000-0-0-3-2-0-000-0-5-7-8---------------------------|
D -000-0-000-0-00-0-000-0-000-0-00-0--000-0-0-3-2-0-000-0-5-7-8---------------------------|
   ...   ...   ..   ...   ...   ..    ...           ...


Verse 3
Part 1
E ------|
B ------|
G ------|
D -0~---
A -0~---
D -0~---

Vocal Part
              Do Nothing Here                       Distortion(Over-Drive)
E -------------------------------------|-------------------------------------------------|
B -------------------------------------|-------------------------------------------------|
G -------------------------------------|-------------------------------------------------|
D -------------------------------------|-0-0000-0-0000-0-0000-0-0000---------------------|
A -------------------------------------|-0-0000-0-0000-0-0000-0-0000---------------------|
D -------------------------------------|-0-0000-0-0000-0-0000-0-0000---------------------|
                                           ....   ....   ....   ....
E -------------------------------------|-------------------------------------------------|
B -------------------------------------|-------------------------------------------------|
G -------------------------------------|-------------------------------------------------|
D -------------------------------------|-0-0000-0-0000-0-0000-0-0000---------------------|
A -------------------------------------|-0-0000-0-0000-0-0000-0-0000---------------------|
D -------------------------------------|-0-0000-0-0000-0-0000-0-0000---------------------|
                                           ....   ....   ....   ....
E -------------------------------------|-------------------------------------------------|
B -------------------------------------|-------------------------------------------------|
G -------------------------------------|-------------------------------------------------|
D -------------------------------------|-0-0000-0-0000-0-0000-0-0000---------------------|
A -------------------------------------|-0-0000-0-0000-0-0000-0-0000---------------------|
D -------------------------------------|-0-0000-0-0000-0-0000-0-0000---------------------|
                                           ....   ....   ....   ....
E -------------------------------------|-------------------------------------------------|
B -------------------------------------|-------------------------------------------------|
G -------------------------------------|-------------------------------------------------|
D -------------------------------------|-0-0000-0-0000-0-0000-0-0000---------------------|
A -------------------------------------|-0-0000-0-0000-0-0000-0-0000---------------------|
D -------------------------------------|-0-0000-0-0000-0-0000-0-0000---------------------|
                                           ....   ....   ....   ....

Break Down
E ----------------------------------------------------------------------------------------|
B -------------------11^------------------11^---------------------------------------------|
G -------------------14^------------------14^---------------------------------------------|
D -00-0000-00-00-0000---00-0000-00-00-0000------------------------------------------------|
A -00-0000-00-00-0000---00-0000-00-00-0000------------------------------------------------|
D -00-0000-00-00-0000---00-0000-00-00-0000-----[3p0-2p0-5p0-0-2p0-3p0-0-2p0-3p0]x2--------|
   .. .... .. .. ....   .. .... .. .. ....

Interlude-
Do Nothing
E ----|
B o~--|
G ----|
D ----|
A o~--|
D ----|
Tap to rate this tab
 
# A B C D E F G H I J K L M N O P Q R S T U V W X Y Z