Song name
# A B C D E F G H I J K L M N O P Q R S T U V W X Y Z

Misc Unsigned Bands - Tripped Ad Falling - Flat Days Faded Memories tab

Help us improve GuitareTab! Take a short survey!
This is my interpretation. Great local, unsigned band from Trinidad by the way...
ANY PROBLEMS EMAIL ME AT gabriel_josep88@hotmail.com

INTRO
e----------------------------------------------------------------|
B----------------------------------------------------------------|
G-555555-10/9---7---10/ 9--------10/ 9---------------------------|
D-555555-x  x---7x6 -x  x--7------x  x----3333--5555-------------|
A-333333-8/ 7---5----8/ 7--7 x6-- 8/ 7----3333--5555-------------|
E--------------------------5--------------1111--3333-------------|
{downstrokes}

VERSE

e---------------------------------------------------------------------|up and down
B---------------------------------------------------------------------| strumming}
G-555555--------------------------------------------------------------|
D-555555--555555--777777--333555--------------------------------------|
A-333333--555555--777777--333555--------------------------------------|
E---------333333--555555--111333--------------------------------------|

CHORUS

e--------------------------------------------------------------------|
B--------------------------------------------------------------------|
G-5----7-------------------------------------------------------------|
D-5-x6-7-x6-7----3----5----------------------------------------------|
A-3----5----7-x6-3-x3-5-x3-------------------------------------------|
E-----------5----1----3----------------------------------------------|
Related for Tripped Ad Falling - Flat Days Faded Memories tab