Song name
# A B C D E F G H I J K L M N O P Q R S T U V W X Y Z

Misc Unsigned Bands - Dead Society - A Punks Tale tab

Dead Society
A Punks Tale
Guitar I

Intro 1 x1
|---------------------------------|
|---7-5---5-8-7-5---7-5---5-8-7---|
|-4-----7---------4-----7-------7-|
|---------------------------------|
|---------------------------------|
|---------------------------------|

Second Half
|---------------------------------|
|---7-5---5-8-7-5---7-5---5-8-7---|
|-4-----7---------4-----7-------7*|
|---------------------------------|
|---------------------------------|
|---------------------------------|

Intro 2 x3          Pt. II x1
|-----------------||------------------|
|-7^7^7^-9-10-9---||-7^7^7^-9-10-9-12^|
|---------------9-||------------------|Play Whole Intro 2 x2
|-----------------||------------------|
|-----------------||------------------|
|-----------------||------------------|

Fill 1 x1
|--------------|
|-9-7-5--------|
|--------------|
|--------------|
|--------------|
|--------------|

Verse 1 x3
|------------------------------------------|
|------------------------------------------|
|-12--12-12-12--12/7-777-7-9-999-9/5-555-5-|
|-12--12-12-12--12/7-777-7-9-999-9/5-555-5-|
|--9---9--9--9---9/5-555-5-7-777-7/3-333-3-|
|------------------------------------------|
PM     .......       ...     ...     ...

Fill 2 x1
|---------------------------------------------|
|---------------------------------------------|
|-12--12-12-12--12/7-777-7-9-5555555555555555-|
|-12--12-12-12--12/7-777-7-9-5555555555555555-|
|--9---9--9--9---9/5-555-5-7-3333333333333333-|
|---------------------------------------------|
PM     .......       ...     

Chorus x4
|-----------------------------------------------------|
|-----------------------------------------------------|
|-1212121212121212-99999999------------------77777777-|
|-1212121212121212-99999999-1010101010101010-77777777-|
|-1010101010101010-77777777-1010101010101010-55555555-|
|----------------------------8-8-8-8-8-8-8-8----------|

Fill 3 x4
|----------------------------|
|-13~13-12~12-------15-13-12-|
|-------------14~14----------|
|----------------------------|
|----------------------------|
|----------------------------|

Fill 1 x1
|--------------|
|-9-7-5--------|
|--------------|
|--------------|
|--------------|
|--------------|

Verse 1 x3
|------------------------------------------|
|------------------------------------------|
|-12--12-12-12--12/7-777-7-9-999-9/5-555-5-|
|-12--12-12-12--12/7-777-7-9-999-9/5-555-5-|
|--9---9--9--9---9/5-555-5-7-777-7/3-333-3-|
|------------------------------------------|
PM     .......       ...     ...     ...

Fill 2 x1
|---------------------------------------------|
|---------------------------------------------|
|-12--12-12-12--12/7-777-7-9-5555555555555555-|
|-12--12-12-12--12/7-777-7-9-5555555555555555-|
|--9---9--9--9---9/5-555-5-7-3333333333333333-|
|---------------------------------------------|
PM     .......       ...     

Chorus x4
|-----------------------------------------------------|
|-----------------------------------------------------|
|-1212121212121212-99999999------------------77777777-|
|-1212121212121212-99999999-1010101010101010-77777777-|
|-1010101010101010-77777777-1010101010101010-55555555-|
|----------------------------8-8-8-8-8-8-8-8----------|

Fill 3 x4
|----------------------------|
|-13~13-12~12-------15-13-12-|
|-------------14~14----------|
|----------------------------|
|----------------------------|
|----------------------------|

Fill 1 x1
|--------------|
|-9-7-5--------|
|--------------|
|--------------|
|--------------|
|--------------|

Bridge 1 x1
|---------------------------------|
|---7-5---5-8-7-5---7-5---5-8-7---|
|-4-----7---------4-----7-------7-|
|---------------------------------|
|---------------------------------|
|---------------------------------|
PM................................

|---------------------------------|
|---7-5---5-8-7-5---7-5---5-8-7---|
|-4-----7---------4-----7-------7*|
|---------------------------------|
|---------------------------------|
|---------------------------------|
PM................................

Bridge 2 x3         Pt. II
|-----------------||------------------|
|-7^7^7^-9-10-9---||-7^7^7^-9-10-9-12^|
|---------------9-||------------------|Play Whole Bridge 2 x2
|-----------------||------------------|
|-----------------||------------------|
|-----------------||------------------|
PM       .........          .......              

Fill 1 x1
|--------------|
|-9-7-5--------|
|--------------|
|--------------|
|--------------|
|--------------|

Chorus x8
|-----------------------------------------------------|
|-----------------------------------------------------|
|-1212121212121212-99999999------------------77777777-|
|-1212121212121212-99999999-1010101010101010-77777777-|
|-1010101010101010-77777777-1010101010101010-55555555-|
|----------------------------8-8-8-8-8-8-8-8----------|

----------------------------------------------------------------------------

Guitar II

Intro 1 x2   Play on Second Half of Intro 1
|------------------|
|------------------|
|------------------|
|---7---7\9-10-9-7-|
|------------------|
|-5---5------------|

Intro 2 x8
|--------------|
|--------------|
|--------------|
|-777-9-10-9-5-|
|-777-9-10-9-5-|
|-555-7--8-7-3-|
PM...

Fill 1 x1
|-------|
|-------|
|-------|
|-9-7-5-|
|-9-7-5-|
|-7-5-3-|


Play Nothing While Guitar 1 plays The Verse and Fill 2

Chorus x4
|-----------------------------------------------------|
|-----------------------------------------------------|
|-1212121212121212-99999999------------------77777777-|
|-1212121212121212-99999999-1010101010101010-77777777-|
|-1010101010101010-77777777-1010101010101010-55555555-|
|----------------------------8-8-8-8-8-8-8-8----------|

Fill 3 x4
|--------------------|
|--------------------|
|-9~9-8~8-----11-9-8-|
|-9~9-8~8-9~9-11-9-8-|
|-7~7-6~6-9~9--9-7-6-|
|---------7~7--------|

Fill 1 x1
|-------|
|-------|
|-------|
|-9-7-5-|
|-9-7-5-|
|-7-5-3-|


Play Nothing While Guitar 1 plays The Verse and Fill 2

Chorus x4
|-----------------------------------------------------|
|-----------------------------------------------------|
|-1212121212121212-99999999------------------77777777-|
|-1212121212121212-99999999-1010101010101010-77777777-|
|-1010101010101010-77777777-1010101010101010-55555555-|
|----------------------------8-8-8-8-8-8-8-8----------|

Fill 3 x4
|--------------------|
|--------------------|
|-9~9-8~8-----11-9-8-|
|-9~9-8~8-9~9-11-9-8-|
|-7~7-6~6-9~9--9-7-6-|
|---------7~7--------|

Fill 1 x1
|-------|
|-------|
|-------|
|-9-7-5-|
|-9-7-5-|
|-7-5-3-|

Bridge x2 Play on Second Half of Bridge 1
|------------------|
|------------------|
|------------------|
|---7---7\9-10-9-7-|
|------------------|
|-5---5------------|
PM.................

Intro 2 x8
|--------------|
|--------------|
|--------------|
|-777-9-10-9-5-|
|-777-9-10-9-5-|
|-555-7--8-7-3-|
PM...

Fill 1 x1
|-------|
|-------|
|-------|
|-9-7-5-|
|-9-7-5-|
|-7-5-3-|

Chorus x8
|-----------------------------------------------------|
|-----------------------------------------------------|
|-1212121212121212-99999999------------------77777777-|
|-1212121212121212-99999999-1010101010101010-77777777-|
|-1010101010101010-77777777-1010101010101010-55555555-|
|----------------------------8-8-8-8-8-8-8-8----------|
Tap to rate this tab
 
# A B C D E F G H I J K L M N O P Q R S T U V W X Y Z