Song name
# A B C D E F G H I J K L M N O P Q R S T U V W X Y Z

Misc Unsigned Bands - Alkatraz - Philophobia tab

Song I came up with, adding bass tab for it soon too. XxscarfacexX3@hotmail.com Feal free to comment me if
its good or not, or what I could improve. My first tab
sorry anythings wrong :)

Key
(V downstroke
(^) upstroke

e|-------------------------------------------------|
B|-------------------------------------------------|
G|---9-9---77777--55555--444-555-------------------|
D|---9-9---77777--55555--444-555-------------------| X3
A|---7-7---55555--33333--222-777-------------------|
E|-------------------------------------------------|
     V V   V^V^V  V^V^V       V^V V^V

e|-------------------------------------------------|
B|-------------------------------------------------|
G|---9-9---77777--55555--44444---------------------|
D|---9-9---77777--55555--44444-RING-LASTNOTE!------| X1
A|---7-7---55555--33333--22222---------------------|
E|-------------------------------------------------|
     V V   V^V^V  V^V^V  VVV^V

Key
(V downstroke
(^) upstroke

e|------------------------------------------------|
B|------------------------------------------------|
G|---9999--7777--9999--5555-----------------------|
D|---9999--7777--9999--5555-----------------------| X1
A|---7777--5555--7777--3333-----------------------|
E|------------------------------------------------|
     ALL DOWNSTROKES
e|-------------------------------------------------|
B|-------------------------------------------------|
G|---9999--7777--5555--44--------------------------|
D|---9999--7777--5555--44-RING!--------------------| X1
A|---7777--5555--3333--22--------------------------|
E|-------------------------------------------------|
     ALL DOWNSTROKES

e|-------------------------------------------------|
B|-------------------------------------------------|
G|---9-9---77777--55555--444-555-------------------|
D|---9-9---77777--55555--444-555-------------------| X3   <
A|---7-7---55555--33333--222-777-------------------|      <
E|-------------------------------------------------|      <
     V V   V^V^V  V^V^V       V^V V^V                     <
                                                          < Same as intro 
e|-------------------------------------------------|      <
B|-------------------------------------------------|      <
G|---9-9---77777--55555--44444---------------------|
D|---9-9---77777--55555--44444-RING-LASTNOTE!------| X1
A|---7-7---55555--33333--22222---------------------|
E|-------------------------------------------------|
     V V   V^V^V  V^V^V  VVV^V
Keep repeting this as much as you want!

Solo----------------
e|-0-----10-9--0----10-9-12------------------------|     
B|--1012---0-0--1012--0-0--0-----------------------|    X2 (or whatever
G|------0------------------------------------------|         you feal 
D|-------------------------------------------------|        like using )
A|-------------------------------------------------|
E|-------------------------------------------------|

e|-0-----109--0-----9-7-10-------------------------|     
B|--1012----0--1012--0-0--0------------------------|    Repeatable
G|------0------------------------------------------|        
D|-------------------------------------------------|        
A|-------------------------------------------------|
E|-------------------------------------------------|

Hope you like it!
Tap to rate this tab
# A B C D E F G H I J K L M N O P Q R S T U V W X Y Z