Guitaretab - guitar tabs
Song name
# A B C D E F G H I J K L M N O P Q R S T U V W X Y Z

Misc Unsigned Bands - Border Crossing - Memories tab

                 Memories - Border Crossing
-------------------------------------------------------------------------------
Tabbed by: Some Guy
Email:
Rythem is down down down down up down up
Tuning: Standred
Guitar One - Acoutic Guitar (reapeat this is the chorus and verse)
e|---3333333---------3333333--------3333333---------3333333--|
B|---3333333---------3333333--------3333333---------3333333--|
G|-----------------2---------0-------------------------------|
D|-2-------2-------------------------------------------------|
A|-3-------2-------------------------------------------------|
E|-----------------------------------------------------------|
Guitar Two - Acoutic Steel String (repeat this is the chorus and verse)
e|----------------------------------------|
B|----------------------------------------|
G|---------------------2222222------------|
D|-7777777---7777777---2222222---9999999--|
A|-5555555---4444444---0000000---7777777--|
E|----------------------------------------|
Guitar One solo repeat Twice( Guitar Two Does Guitar ones part from begining)
e|--------3------------------3-----------------------3---------------3-----------------|
B|------3----3------------3-----3-----------------3-----3----------3----3--------------|
G|-------------0-------------------0-----------2-----------2-----0---------0-----------|
D|---2----------------2---------------------0------------------0-----------------------|
A|-3----------------2------------------------------------------------------------------|
E|-------------------------------------------------------------------------------------|

hope you people like
[ Tab from: http://www.guitaretab.com/m/misc-unsigned-bands/75033.html ]
Related for Border Crossing - Memories tab
Advertisement will be closed in 10 seconds