Song name
# A B C D E F G H I J K L M N O P Q R S T U V W X Y Z

Misc Unsigned Bands - Dead By Tommorow - Untitled tab

----------------------------------------------------------------------------
			     Dead By Tommorow - Untitled
----------------------------------------------------------------------------

                                      Please e-mail and critisize.
                                      Bad or good?
Tabbed by: Patrick Harris
Email: Theycallmepaco@aol.com

Tuning: Standard

 fast alternative picking (just repeat for about 4 seconds)

e|----9h10----9h10---9h10---9h10---9h10--------------------------------------|
B|-----------------------------------------------10-9-----------9------------|
G|-------------------------------------------------------10-9-----10-9-8-----|
D|---------------------------------------------------------------------------|
A|---------------------------------------------------------------------------|
E|---------------------------------------------------------------------------|

e|---------------------------------------------------------------------------|
B|--10-9-8-------------------------------------------------------------------|
G|-----------10-9-8--9-10-------------repeat-4x------------------------------|
D|---------------------------------------------------------------------------|
A|---------------------------------------------------------------------------|
E|---------------------------------------------------------------------------|

e|---------------------------------------------------------------------------|
B|---------------------------------------------------------------------------|
G|---------------------------------------------------------------------------|
D|-----------------------------------------------------3---------------------|
A|---------3----------------------3-----------0-3-2-1------2-1-0----2~-------|
E|-0-3-2-1----2-1-0-------0-3-2-1----2-1-0--------------------------0~-------|
 . . . . .  . . .       . . . . .  . . .

e|---------------------------------------------------------------------------|
B|---------------------------------------------------------------------------|
G|---------------------------------------------------------------------------|
D|--------------2~-----------------------------------2~----------------------|
A|--------------0~------------------2~---------------0~--------5-------------|
E|------0-3-2-1---------0-3-2-1-----0~-------0-3-2-1-----------3-------------|
      . . . .

e|---------------------------------------------------------------------------|
B|---------------------------------------------------------------------------|
G|---------------------------------------------------------------------------|
D|---------------------------------------------------------------------------|
A|-------------2~-------3-3-3-3-0--------------------------------------------|
E|---0-3-2-1---0~-------3-3-3-3-0--------------------------------------------|
                            . 


| /  slide up
| \  slide down
| h  hammer-on
| p  pull-off
| ~  vibrato
| +  harmonic
| .  Palm mute
============================================================================
Tap to rate this tab
# A B C D E F G H I J K L M N O P Q R S T U V W X Y Z